  0
SECTION
  2
HEADER
  9
$ACADVER
  1
AC1015
  9
$ACADMAINTVER
 70
     6
  9
$DWGCODEPAGE
  3
ANSI_1252
  9
$INSBASE
 10
0.0
 20
0.0
 30
0.0
  9
$EXTMIN
 10
110.8917475129
 20
66.1706544575
 30
0.0
  9
$EXTMAX
 10
618.8917475129
 20
1285.3706544575
 30
0.0
  9
$LIMMIN
 10
0.0
 20
0.0
  9
$LIMMAX
 10
420.0
 20
297.0
  9
$ORTHOMODE
 70
     0
  9
$REGENMODE
 70
     1
  9
$FILLMODE
 70
     1
  9
$QTEXTMODE
 70
     0
  9
$MIRRTEXT
 70
     1
  9
$LTSCALE
 40
1.0
  9
$ATTMODE
 70
     1
  9
$TEXTSIZE
 40
3.5
  9
$TRACEWID
 40
1.0
  9
$TEXTSTYLE
  7
Standard
  9
$CLAYER
  8
0
  9
$CELTYPE
  6
ByLayer
  9
$CECOLOR
 62
   256
  9
$CELTSCALE
 40
1.0
  9
$DISPSILH
 70
     0
  9
$DIMSCALE
 40
1.0
  9
$DIMASZ
 40
3.302
  9
$DIMEXO
 40
1.0
  9
$DIMDLI
 40
3.75
  9
$DIMRND
 40
0.0
  9
$DIMDLE
 40
0.0
  9
$DIMEXE
 40
1.0
  9
$DIMTP
 40
0.0
  9
$DIMTM
 40
0.0
  9
$DIMTXT
 40
3.5
  9
$DIMCEN
 40
2.5
  9
$DIMTSZ
 40
0.0
  9
$DIMTOL
 70
     0
  9
$DIMLIM
 70
     0
  9
$DIMTIH
 70
     1
  9
$DIMTOH
 70
     1
  9
$DIMSE1
 70
     0
  9
$DIMSE2
 70
     0
  9
$DIMTAD
 70
     1
  9
$DIMZIN
 70
     0
  9
$DIMBLK
  1

  9
$DIMASO
 70
     1
  9
$DIMSHO
 70
     1
  9
$DIMPOST
  1

  9
$DIMAPOST
  1

  9
$DIMALT
 70
     0
  9
$DIMALTD
 70
     3
  9
$DIMALTF
 40
0.0393700787
  9
$DIMLFAC
 40
1.0
  9
$DIMTOFL
 70
     1
  9
$DIMTVP
 40
0.0
  9
$DIMTIX
 70
     0
  9
$DIMSOXD
 70
     0
  9
$DIMSAH
 70
     0
  9
$DIMBLK1
  1

  9
$DIMBLK2
  1

  9
$DIMSTYLE
  2
ISO-25
  9
$DIMCLRD
 70
     0
  9
$DIMCLRE
 70
     0
  9
$DIMCLRT
 70
     0
  9
$DIMTFAC
 40
1.0
  9
$DIMGAP
 40
1.524
  9
$DIMJUST
 70
     0
  9
$DIMSD1
 70
     0
  9
$DIMSD2
 70
     0
  9
$DIMTOLJ
 70
     0
  9
$DIMTZIN
 70
     0
  9
$DIMALTZ
 70
     0
  9
$DIMALTTZ
 70
     0
  9
$DIMUPT
 70
     0
  9
$DIMDEC
 70
     2
  9
$DIMTDEC
 70
     2
  9
$DIMALTU
 70
     2
  9
$DIMALTTD
 70
     3
  9
$DIMTXSTY
  7
Standard
  9
$DIMAUNIT
 70
     0
  9
$DIMADEC
 70
     2
  9
$DIMALTRND
 40
0.0
  9
$DIMAZIN
 70
     0
  9
$DIMDSEP
 70
    44
  9
$DIMATFIT
 70
     3
  9
$DIMFRAC
 70
     0
  9
$DIMLDRBLK
  1

  9
$DIMLUNIT
 70
     2
  9
$DIMLWD
 70
    -2
  9
$DIMLWE
 70
    -2
  9
$DIMTMOVE
 70
     0
  9
$LUNITS
 70
     2
  9
$LUPREC
 70
     2
  9
$SKETCHINC
 40
1.0
  9
$FILLETRAD
 40
10.0
  9
$AUNITS
 70
     0
  9
$AUPREC
 70
     2
  9
$MENU
  1
.
  9
$ELEVATION
 40
0.0
  9
$PELEVATION
 40
0.0
  9
$THICKNESS
 40
0.0
  9
$LIMCHECK
 70
     0
  9
$CHAMFERA
 40
0.0
  9
$CHAMFERB
 40
0.0
  9
$CHAMFERC
 40
0.0
  9
$CHAMFERD
 40
0.0
  9
$SKPOLY
 70
     0
  9
$TDCREATE
 40
2457456.757677153
  9
$TDUCREATE
 40
2457456.966010486
  9
$TDUPDATE
 40
2457456.757899294
  9
$TDUUPDATE
 40
2457456.966232627
  9
$TDINDWG
 40
0.0000000116
  9
$TDUSRTIMER
 40
0.0000000116
  9
$USRTIMER
 70
     1
  9
$ANGBASE
 50
0.0
  9
$ANGDIR
 70
     0
  9
$PDMODE
 70
     0
  9
$PDSIZE
 40
-1.0
  9
$PLINEWID
 40
0.0
  9
$SPLFRAME
 70
     0
  9
$SPLINETYPE
 70
     6
  9
$SPLINESEGS
 70
     8
  9
$HANDSEED
  5
247
  9
$SURFTAB1
 70
     6
  9
$SURFTAB2
 70
     6
  9
$SURFTYPE
 70
     6
  9
$SURFU
 70
     6
  9
$SURFV
 70
     6
  9
$UCSBASE
  2

  9
$UCSNAME
  2

  9
$UCSORG
 10
0.0
 20
0.0
 30
0.0
  9
$UCSXDIR
 10
1.0
 20
0.0
 30
0.0
  9
$UCSYDIR
 10
0.0
 20
1.0
 30
0.0
  9
$UCSORTHOREF
  2

  9
$UCSORTHOVIEW
 70
     0
  9
$UCSORGTOP
 10
0.0
 20
0.0
 30
0.0
  9
$UCSORGBOTTOM
 10
0.0
 20
0.0
 30
0.0
  9
$UCSORGLEFT
 10
0.0
 20
0.0
 30
0.0
  9
$UCSORGRIGHT
 10
0.0
 20
0.0
 30
0.0
  9
$UCSORGFRONT
 10
0.0
 20
0.0
 30
0.0
  9
$UCSORGBACK
 10
0.0
 20
0.0
 30
0.0
  9
$PUCSBASE
  2

  9
$PUCSNAME
  2

  9
$PUCSORG
 10
0.0
 20
0.0
 30
0.0
  9
$PUCSXDIR
 10
1.0
 20
0.0
 30
0.0
  9
$PUCSYDIR
 10
0.0
 20
1.0
 30
0.0
  9
$PUCSORTHOREF
  2

  9
$PUCSORTHOVIEW
 70
     0
  9
$PUCSORGTOP
 10
0.0
 20
0.0
 30
0.0
  9
$PUCSORGBOTTOM
 10
0.0
 20
0.0
 30
0.0
  9
$PUCSORGLEFT
 10
0.0
 20
0.0
 30
0.0
  9
$PUCSORGRIGHT
 10
0.0
 20
0.0
 30
0.0
  9
$PUCSORGFRONT
 10
0.0
 20
0.0
 30
0.0
  9
$PUCSORGBACK
 10
0.0
 20
0.0
 30
0.0
  9
$USERI1
 70
     0
  9
$USERI2
 70
     0
  9
$USERI3
 70
     0
  9
$USERI4
 70
     0
  9
$USERI5
 70
     0
  9
$USERR1
 40
0.0
  9
$USERR2
 40
0.0
  9
$USERR3
 40
0.0
  9
$USERR4
 40
0.0
  9
$USERR5
 40
0.0
  9
$WORLDVIEW
 70
     1
  9
$SHADEDGE
 70
     3
  9
$SHADEDIF
 70
    70
  9
$TILEMODE
 70
     1
  9
$MAXACTVP
 70
    64
  9
$PINSBASE
 10
0.0
 20
0.0
 30
0.0
  9
$PLIMCHECK
 70
     0
  9
$PEXTMIN
 10
1.0000000000E+20
 20
1.0000000000E+20
 30
1.0000000000E+20
  9
$PEXTMAX
 10
-1.0000000000E+20
 20
-1.0000000000E+20
 30
-1.0000000000E+20
  9
$PLIMMIN
 10
0.0
 20
0.0
  9
$PLIMMAX
 10
420.0
 20
297.0
  9
$UNITMODE
 70
     0
  9
$VISRETAIN
 70
     1
  9
$PLINEGEN
 70
     0
  9
$PSLTSCALE
 70
     1
  9
$TREEDEPTH
 70
  3020
  9
$CMLSTYLE
  2
Standard
  9
$CMLJUST
 70
     0
  9
$CMLSCALE
 40
20.0
  9
$PROXYGRAPHICS
 70
     1
  9
$MEASUREMENT
 70
     1
  9
$CELWEIGHT
370
    -1
  9
$ENDCAPS
280
     0
  9
$JOINSTYLE
280
     0
  9
$LWDISPLAY
290
     1
  9
$INSUNITS
 70
     4
  9
$HYPERLINKBASE
  1

  9
$STYLESHEET
  1

  9
$XEDIT
290
     1
  9
$CEPSNTYPE
380
     0
  9
$PSTYLEMODE
290
     1
  9
$FINGERPRINTGUID
  2
{6B148E66-3B5C-441A-84D7-407336C6726B}
  9
$VERSIONGUID
  2
{FAEB1C32-E019-11D5-929B-00C0DF256EC4}
  9
$EXTNAMES
290
     1
  9
$PSVPSCALE
 40
0.0
  9
$OLESTARTUP
290
     0
  0
ENDSEC
  0
SECTION
  2
CLASSES
  0
CLASS
  1
ACDBDICTIONARYWDFLT
  2
AcDbDictionaryWithDefault
  3
ObjectDBX Classes
 90
        0
280
     0
281
     0
  0
CLASS
  1
VISUALSTYLE
  2
AcDbVisualStyle
  3
ObjectDBX Classes
 90
     4095
280
     0
281
     0
  0
CLASS
  1
MATERIAL
  2
AcDbMaterial
  3
ObjectDBX Classes
 90
     1153
280
     0
281
     0
  0
CLASS
  1
SCALE
  2
AcDbScale
  3
ObjectDBX Classes
 90
     1153
280
     0
281
     0
  0
CLASS
  1
TABLESTYLE
  2
AcDbTableStyle
  3
ObjectDBX Classes
 90
     4095
280
     0
281
     0
  0
CLASS
  1
MLEADERSTYLE
  2
AcDbMLeaderStyle
  3
ACDB_MLEADERSTYLE_CLASS
 90
     4095
280
     0
281
     0
  0
CLASS
  1
SUN
  2
AcDbSun
  3
SCENEOE
 90
     1153
280
     0
281
     0
  0
CLASS
  1
ACDBPLACEHOLDER
  2
AcDbPlaceHolder
  3
ObjectDBX Classes
 90
        0
280
     0
281
     0
  0
CLASS
  1
LAYOUT
  2
AcDbLayout
  3
ObjectDBX Classes
 90
        0
280
     0
281
     0
  0
ENDSEC
  0
SECTION
  2
TABLES
  0
TABLE
  2
VPORT
  5
8
330
0
100
AcDbSymbolTable
 70
     1
  0
VPORT
  5
29
330
8
100
AcDbSymbolTableRecord
100
AcDbViewportTableRecord
  2
*Active
 70
     0
 10
0.0
 20
0.0
 11
1.0
 21
1.0
 12
364.8917475129
 22
675.7706544575
 13
0.0
 23
0.0
 14
10.0
 24
10.0
 15
10.0
 25
10.0
 16
0.0
 26
0.0
 36
1.0
 17
0.0
 27
0.0
 37
0.0
 40
1243.584
 41
0.4166666667
 42
50.0
 43
0.0
 44
0.0
 50
0.0
 51
0.0
 71
     0
 72
   100
 73
     1
 74
     3
 75
     0
 76
     0
 77
     0
 78
     0
281
     0
 65
     1
110
0.0
120
0.0
130
0.0
111
1.0
121
0.0
131
0.0
112
0.0
122
1.0
132
0.0
 79
     0
146
0.0
  0
ENDTAB
  0
TABLE
  2
LTYPE
  5
5
330
0
100
AcDbSymbolTable
 70
     6
  0
LTYPE
  5
14
330
5
100
AcDbSymbolTableRecord
100
AcDbLinetypeTableRecord
  2
ByBlock
 70
     0
  3

 72
    65
 73
     0
 40
0.0
  0
LTYPE
  5
15
330
5
100
AcDbSymbolTableRecord
100
AcDbLinetypeTableRecord
  2
ByLayer
 70
     0
  3

 72
    65
 73
     0
 40
0.0
  0
LTYPE
  5
16
330
5
100
AcDbSymbolTableRecord
100
AcDbLinetypeTableRecord
  2
Continuous
 70
     0
  3
Solid line
 72
    65
 73
     0
 40
0.0
  0
LTYPE
  5
6E
330
5
100
AcDbSymbolTableRecord
100
AcDbLinetypeTableRecord
  2
HIDDEN
 70
     0
  3
Hidden __ __ __ __ __ __ __ __ __ __ __ __ __ __
 72
    65
 73
     2
 40
1.905
 49
1.27
 74
     0
 49
-0.635
 74
     0
  0
LTYPE
  5
6F
330
5
100
AcDbSymbolTableRecord
100
AcDbLinetypeTableRecord
  2
PHANTOM
 70
     0
  3
Phantom ______  __  __  ______  __  __  ______
 72
    65
 73
     6
 40
12.7
 49
6.35
 74
     0
 49
-1.27
 74
     0
 49
1.27
 74
     0
 49
-1.27
 74
     0
 49
1.27
 74
     0
 49
-1.27
 74
     0
  0
LTYPE
  5
70
330
5
100
AcDbSymbolTableRecord
100
AcDbLinetypeTableRecord
  2
CENTER
 70
     0
  3
Center ____ _ ____ _ ____ _ ____ _ ____ _ ____
 72
    65
 73
     4
 40
10.16
 49
6.35
 74
     0
 49
-1.27
 74
     0
 49
1.27
 74
     0
 49
-1.27
 74
     0
  0
LTYPE
  5
71
330
5
100
AcDbSymbolTableRecord
100
AcDbLinetypeTableRecord
  2
CENTERX2
 70
     0
  3
Center (2x) ________  __  ________  __  _____
 72
    65
 73
     4
 40
20.32
 49
12.7
 74
     0
 49
-2.54
 74
     0
 49
2.54
 74
     0
 49
-2.54
 74
     0
  0
LTYPE
  5
72
330
5
100
AcDbSymbolTableRecord
100
AcDbLinetypeTableRecord
  2
DOT2
 70
     0
  3
Dot (.5x) ........................................
 72
    65
 73
     2
 40
0.635
 49
0.0
 74
     0
 49
-0.635
 74
     0
  0
ENDTAB
  0
TABLE
  2
LAYER
  5
2
330
0
100
AcDbSymbolTable
 70
     1
  0
LAYER
  5
10
330
2
100
AcDbSymbolTableRecord
100
AcDbLayerTableRecord
  2
0
 70
     0
 62
     7
  6
Continuous
370
    -3
390
F
  0
ENDTAB
  0
TABLE
  2
STYLE
  5
3
330
0
100
AcDbSymbolTable
 70
     2
  0
STYLE
  5
11
330
3
100
AcDbSymbolTableRecord
100
AcDbTextStyleTableRecord
  2
Standard
 70
     0
 40
0.0
 41
1.0
 50
0.0
 71
     0
 42
3.5
  3
txt
  4

  0
STYLE
  5
244
330
3
100
AcDbSymbolTableRecord
100
AcDbTextStyleTableRecord
  2
SLDTEXTSTYLE0
 70
     0
 40
0.0
 41
0.7
 50
0.0
 71
     0
 42
3.5
  3
TXT
  4

  0
ENDTAB
  0
TABLE
  2
VIEW
  5
6
330
0
100
AcDbSymbolTable
 70
     0
  0
ENDTAB
  0
TABLE
  2
UCS
  5
7
330
0
100
AcDbSymbolTable
 70
     0
  0
ENDTAB
  0
TABLE
  2
APPID
  5
9
330
0
100
AcDbSymbolTable
 70
     1
  0
APPID
  5
12
330
9
100
AcDbSymbolTableRecord
100
AcDbRegAppTableRecord
  2
ACAD
 70
     0
  0
ENDTAB
  0
TABLE
  2
DIMSTYLE
  5
A
330
0
100
AcDbSymbolTable
 70
     1
100
AcDbDimStyleTable
  0
DIMSTYLE
105
27
330
A
100
AcDbSymbolTableRecord
100
AcDbDimStyleTableRecord
  2
ISO-25
 70
     0
 41
2.5
 42
0.625
 43
3.75
 44
1.25
 73
     0
 74
     0
 77
     1
 78
     8
140
2.5
141
2.5
143
0.0393700787
147
0.625
171
     3
172
     1
178
     0
271
     2
272
     2
274
     3
278
    44
283
     0
284
     8
340
11
  0
ENDTAB
  0
TABLE
  2
BLOCK_RECORD
  5
1
330
0
100
AcDbSymbolTable
 70
     1
  0
BLOCK_RECORD
  5
1F
330
1
100
AcDbSymbolTableRecord
100
AcDbBlockTableRecord
  2
*Model_Space
340
22
  0
BLOCK_RECORD
  5
1B
330
1
100
AcDbSymbolTableRecord
100
AcDbBlockTableRecord
  2
*Paper_Space
340
1E
  0
BLOCK_RECORD
  5
23
330
1
100
AcDbSymbolTableRecord
100
AcDbBlockTableRecord
  2
*Paper_Space0
340
26
  0
ENDTAB
  0
ENDSEC
  0
SECTION
  2
BLOCKS
  0
BLOCK
  5
20
330
1F
100
AcDbEntity
  8
0
100
AcDbBlockBegin
  2
*Model_Space
 70
     0
 10
0.0
 20
0.0
 30
0.0
  3
*Model_Space
  1

  0
ENDBLK
  5
21
330
1F
100
AcDbEntity
  8
0
100
AcDbBlockEnd
  0
BLOCK
  5
1C
330
1B
100
AcDbEntity
 67
     1
  8
0
100
AcDbBlockBegin
  2
*Paper_Space
 70
     0
 10
0.0
 20
0.0
 30
0.0
  3
*Paper_Space
  1

  0
ENDBLK
  5
1D
330
1B
100
AcDbEntity
 67
     1
  8
0
100
AcDbBlockEnd
  0
BLOCK
  5
24
330
23
100
AcDbEntity
  8
0
100
AcDbBlockBegin
  2
*Paper_Space0
 70
     0
 10
0.0
 20
0.0
 30
0.0
  3
*Paper_Space0
  1

  0
ENDBLK
  5
25
330
23
100
AcDbEntity
  8
0
100
AcDbBlockEnd
  0
ENDSEC
  0
SECTION
  2
ENTITIES
  0
SPLINE
  5
DD
330
1F
100
AcDbEntity
  8
0
  6
Continuous
 62
     7
370
    15
100
AcDbSpline
210
0.0
220
0.0
230
1.0
 70
     8
 71
     3
 72
    18
 73
    14
 74
     0
 42
0.000000001
 43
0.00000001
 40
0.4888523901244327
 40
0.4888523901244327
 40
0.4888523901244327
 40
0.4888523901244327
 40
0.51912417987486
 40
0.5515599730086037
 40
0.5839957661423474
 40
0.6164315592760912
 40
0.6488673524098348
 40
0.7137389386773222
 40
0.7786105249448096
 40
0.843482111212297
 40
0.9083536974797843
 40
0.9407894906135281
 40
0.9670855717897335
 40
0.9670855717897335
 40
0.9670855717897335
 40
0.9670855717897335
 10
410.4501717694969
 20
366.1343235964731
 30
0.0
 10
406.5582705446998
 20
366.0350132153383
 30
0.0
 10
398.5641911403566
 20
365.7269607181601
 30
0.0
 10
386.7151119160297
 20
364.7993590424304
 30
0.0
 10
374.9870677217079
 20
363.1820184886749
 30
0.0
 10
363.3579851269908
 20
360.8689149950497
 30
0.0
 10
347.9802069965891
 20
357.0329860786055
 30
0.0
 10
328.8835807230246
 20
351.0794620868616
 30
0.0
 10
305.9048035303695
 20
342.9877908066902
 30
0.0
 10
282.5823476881984
 20
334.9008899424369
 30
0.0
 10
262.6092220347876
 20
328.9995670902101
 30
0.0
 10
246.9342741131098
 20
325.4851288659691
 30
0.0
 10
239.3392401868658
 20
324.1729499849868
 30
0.0
 10
235.9059127727184
 20
323.6696494605887
 30
0.0
  0
SPLINE
  5
E0
330
1F
100
AcDbEntity
  8
0
  6
Continuous
 62
     7
370
    15
100
AcDbSpline
210
0.0
220
0.0
230
1.0
 70
     8
 71
     3
 72
    17
 73
    13
 74
     0
 42
0.000000001
 43
0.00000001
 40
0.4351314308903934
 40
0.4351314308903934
 40
0.4351314308903934
 40
0.4351314308903934
 40
0.4922651269635821
 40
0.5230354187378825
 40
0.5538057105121829
 40
0.6153462940607836
 40
0.6768868776093843
 40
0.7384274611579851
 40
0.7999680447065858
 40
0.8615086282551865
 40
0.8922789200294868
 40
0.9133670981329746
 40
0.9133670981329746
 40
0.9133670981329746
 40
0.9133670981329746
 10
410.0957172549496
 20
380.1002165766877
 30
0.0
 10
402.5246458733173
 20
379.90909053903
 30
0.0
 10
390.895701898834
 20
379.3351972313808
 30
0.0
 10
375.4322468090388
 20
377.4072109318386
 30
0.0
 10
359.7295319092373
 20
374.5019220687942
 30
0.0
 10
340.6329392920414
 20
369.5172475321277
 30
0.0
 10
318.334923086194
 20
362.2127968111211
 30
0.0
 10
296.4055326664736
 20
354.4391288041979
 30
0.0
 10
274.6033518406397
 20
347.0275017470556
 30
0.0
 10
256.3449324635014
 20
341.8350504619656
 30
0.0
 10
242.7277437118817
 20
338.9202433875853
 30
0.0
 10
236.4454674737743
 20
337.8680882821401
 30
0.0
 10
233.8795896388185
 20
337.4919192804451
 30
0.0
  0
SPLINE
  5
E6
330
1F
100
AcDbEntity
  8
0
  6
Continuous
 62
     7
370
    15
100
AcDbSpline
210
0.0
220
0.0
230
1.0
 70
     8
 71
     3
 72
    19
 73
    15
 74
     0
 42
0.000000001
 43
0.00000001
 40
-0.0000595414252238
 40
-0.0000595414252238
 40
-0.0000595414252238
 40
-0.0000595414252238
 40
0.0076330315183514
 40
0.0153256044619264
 40
0.0307107503490766
 40
0.0460958962362268
 40
0.061481042123377
 40
0.0922513338976774
 40
0.1230216256719777
 40
0.1537919174462781
 40
0.1845622092205784
 40
0.2461027927691791
 40
0.3076433763177798
 40
0.3674432355768541
 40
0.3674432355768541
 40
0.3674432355768541
 40
0.3674432355768541
 10
556.4064145241321
 20
423.2806544574728
 30
0.0
 10
555.8563354802368
 20
422.3955903620007
 30
0.0
 10
554.7187937844801
 20
420.6284584651883
 30
0.0
 10
552.4073656892864
 20
417.2823960966452
 30
0.0
 10
549.4007787661031
 20
413.3626428082029
 30
0.0
 10
545.628056983358
 20
409.0822708027887
 30
0.0
 10
540.3796357686471
 20
403.8994917593034
 30
0.0
 10
533.424442266435
 20
398.3510574833328
 30
0.0
 10
524.4738167736526
 20
393.0070505481732
 30
0.0
 10
514.9454383582416
 20
388.8227265151752
 30
0.0
 10
501.5193813201132
 20
384.6010613838475
 30
0.0
 10
483.5020270994344
 20
381.5316866645677
 30
0.0
 10
460.6135522949989
 20
380.287436031909
 30
0.0
 10
444.8100494083713
 20
380.2796866754722
 30
0.0
 10
436.9501916739793
 20
380.288913124012
 30
0.0
  0
SPLINE
  5
E9
330
1F
100
AcDbEntity
  8
0
  6
Continuous
 62
     7
370
    15
100
AcDbSpline
210
0.0
220
0.0
230
1.0
 70
     8
 71
     3
 72
    18
 73
    14
 74
     0
 42
0.000000001
 43
0.00000001
 40
0.0536579539181648
 40
0.0536579539181648
 40
0.0536579539181648
 40
0.0536579539181648
 40
0.0569141277190122
 40
0.0650230760024482
 40
0.0812409725693201
 40
0.097458869136192
 40
0.1298946622699356
 40
0.1623304554036793
 40
0.1947662485374231
 40
0.2596378348049104
 40
0.3245094210723978
 40
0.3893810073398852
 40
0.4211596550700601
 40
0.4211596550700601
 40
0.4211596550700601
 40
0.4211596550700601
 10
568.2714005177493
 20
415.9060909500419
 30
0.0
 10
568.0030154172724
 20
415.4742861233411
 30
0.0
 10
567.0598462191249
 20
413.9793696871323
 30
0.0
 10
564.7141222300858
 20
410.4492640663727
 30
0.0
 10
561.0955916599556
 20
405.5751009845744
 30
0.0
 10
554.9558451028884
 20
398.430555711512
 30
0.0
 10
546.6620653454565
 20
390.7050426551821
 30
0.0
 10
535.8805106837644
 20
383.2681113278035
 30
0.0
 10
520.6468682691617
 20
375.60179049835
 30
0.0
 10
500.4406637183673
 20
369.7404795360172
 30
0.0
 10
475.2157135448552
 20
366.7999133112372
 30
0.0
 10
453.881618712382
 20
366.3100128188378
 30
0.0
 10
441.1187023328138
 20
366.313446309036
 30
0.0
 10
436.9335338076002
 20
366.31851428667
 30
0.0
  0
SPLINE
  5
F7
330
1F
100
AcDbEntity
  8
0
  6
Continuous
 62
     7
370
    15
100
AcDbSpline
210
0.0
220
0.0
230
1.0
 70
     8
 71
     3
 72
     8
 73
     4
 74
     0
 42
0.000000001
 43
0.00000001
 40
1.036089713116318
 40
1.036089713116318
 40
1.036089713116318
 40
1.036089713116318
 40
1.038096870014759
 40
1.038096870014759
 40
1.038096870014759
 40
1.038096870014759
 10
208.1752960786487
 20
321.6730119505776
 30
0.0
 10
207.9004490982872
 20
321.6748808329497
 30
0.0
 10
207.6256993678002
 20
321.6774267489758
 30
0.0
 10
207.3511035624713
 20
321.6806544574654
 30
0.0
  0
SPLINE
  5
FA
330
1F
100
AcDbEntity
  8
0
  6
Continuous
 62
     7
370
    15
100
AcDbSpline
210
0.0
220
0.0
230
1.0
 70
     8
 71
     3
 72
     8
 73
     4
 74
     0
 42
0.000000001
 43
0.00000001
 40
0.9823751013324762
 40
0.9823751013324762
 40
0.9823751013324762
 40
0.9823751013324762
 40
0.984589795352388
 40
0.984589795352388
 40
0.984589795352388
 40
0.984589795352388
 10
208.2698223896375
 20
335.6427830761118
 30
0.0
 10
207.9914008823701
 20
335.6446577849557
 30
0.0
 10
207.7130575683454
 20
335.6472803930354
 30
0.0
 10
207.4348502729563
 20
335.6506544574654
 30
0.0
  0
SPLINE
  5
109
330
1F
100
AcDbEntity
  8
0
  6
Continuous
 62
     7
370
    15
100
AcDbSpline
210
0.0
220
0.0
230
1.0
 70
     8
 71
     3
 72
    17
 73
    13
 74
     0
 42
0.000000001
 43
0.00000001
 40
0.4351314308903935
 40
0.4351314308903935
 40
0.4351314308903935
 40
0.4351314308903935
 40
0.4922651269635821
 40
0.5230354187378825
 40
0.5538057105121829
 40
0.6153462940607836
 40
0.6768868776093843
 40
0.7384274611579851
 40
0.7999680447065858
 40
0.8615086282551865
 40
0.8922789200294868
 40
0.9133670981329745
 40
0.9133670981329745
 40
0.9133670981329745
 40
0.9133670981329745
 10
410.0957172549496
 20
171.7002165766878
 30
0.0
 10
402.5246458733173
 20
171.50909053903
 30
0.0
 10
390.8957018988341
 20
170.9351972313807
 30
0.0
 10
375.4322468090388
 20
169.0072109318386
 30
0.0
 10
359.7295319092373
 20
166.1019220687943
 30
0.0
 10
340.6329392920415
 20
161.1172475321276
 30
0.0
 10
318.334923086194
 20
153.8127968111211
 30
0.0
 10
296.4055326664737
 20
146.039128804198
 30
0.0
 10
274.6033518406397
 20
138.6275017470555
 30
0.0
 10
256.3449324635015
 20
133.4350504619657
 30
0.0
 10
242.7277437118817
 20
130.5202433875853
 30
0.0
 10
236.4454674737743
 20
129.4680882821402
 30
0.0
 10
233.8795896388186
 20
129.0919192804451
 30
0.0
  0
SPLINE
  5
10A
330
1F
100
AcDbEntity
  8
0
  6
Continuous
 62
     7
370
    15
100
AcDbSpline
210
0.0
220
0.0
230
1.0
 70
     8
 71
     3
 72
    18
 73
    14
 74
     0
 42
0.000000001
 43
0.00000001
 40
0.0536579539181646
 40
0.0536579539181646
 40
0.0536579539181646
 40
0.0536579539181646
 40
0.0569141277190122
 40
0.0650230760024482
 40
0.0812409725693201
 40
0.097458869136192
 40
0.1298946622699356
 40
0.1623304554036793
 40
0.1947662485374231
 40
0.2596378348049104
 40
0.3245094210723978
 40
0.3893810073398852
 40
0.4211596550700598
 40
0.4211596550700598
 40
0.4211596550700598
 40
0.4211596550700598
 10
568.2714005177494
 20
207.5060909500419
 30
0.0
 10
568.0030154172725
 20
207.0742861233411
 30
0.0
 10
567.059846219125
 20
205.5793696871324
 30
0.0
 10
564.7141222300858
 20
202.0492640663727
 30
0.0
 10
561.0955916599556
 20
197.1751009845744
 30
0.0
 10
554.9558451028885
 20
190.0305557115119
 30
0.0
 10
546.6620653454565
 20
182.3050426551821
 30
0.0
 10
535.8805106837646
 20
174.8681113278034
 30
0.0
 10
520.6468682691618
 20
167.2017904983501
 30
0.0
 10
500.4406637183673
 20
161.3404795360171
 30
0.0
 10
475.2157135448552
 20
158.3999133112372
 30
0.0
 10
453.881618712382
 20
157.9100128188378
 30
0.0
 10
441.1187023328139
 20
157.9134463090359
 30
0.0
 10
436.9335338076003
 20
157.91851428667
 30
0.0
  0
SPLINE
  5
10B
330
1F
100
AcDbEntity
  8
0
  6
Continuous
 62
     7
370
    15
100
AcDbSpline
210
0.0
220
0.0
230
1.0
 70
     8
 71
     3
 72
    18
 73
    14
 74
     0
 42
0.000000001
 43
0.00000001
 40
0.4888523901244325
 40
0.4888523901244325
 40
0.4888523901244325
 40
0.4888523901244325
 40
0.51912417987486
 40
0.5515599730086037
 40
0.5839957661423474
 40
0.6164315592760912
 40
0.6488673524098348
 40
0.7137389386773222
 40
0.7786105249448096
 40
0.843482111212297
 40
0.9083536974797843
 40
0.9407894906135281
 40
0.9670855717897333
 40
0.9670855717897333
 40
0.9670855717897333
 40
0.9670855717897333
 10
410.4501717694969
 20
157.7343235964731
 30
0.0
 10
406.5582705446999
 20
157.6350132153383
 30
0.0
 10
398.5641911403566
 20
157.3269607181601
 30
0.0
 10
386.7151119160297
 20
156.3993590424304
 30
0.0
 10
374.9870677217079
 20
154.7820184886749
 30
0.0
 10
363.3579851269908
 20
152.4689149950497
 30
0.0
 10
347.9802069965891
 20
148.6329860786055
 30
0.0
 10
328.8835807230247
 20
142.6794620868617
 30
0.0
 10
305.9048035303695
 20
134.5877908066902
 30
0.0
 10
282.5823476881984
 20
126.5008899424369
 30
0.0
 10
262.6092220347876
 20
120.5995670902101
 30
0.0
 10
246.9342741131099
 20
117.0851288659691
 30
0.0
 10
239.3392401868659
 20
115.7729499849869
 30
0.0
 10
235.9059127727184
 20
115.2696494605888
 30
0.0
  0
SPLINE
  5
10C
330
1F
100
AcDbEntity
  8
0
  6
Continuous
 62
     7
370
    15
100
AcDbSpline
210
0.0
220
0.0
230
1.0
 70
     8
 71
     3
 72
    19
 73
    15
 74
     0
 42
0.000000001
 43
0.00000001
 40
-0.0000595414252238
 40
-0.0000595414252238
 40
-0.0000595414252238
 40
-0.0000595414252238
 40
0.0076330315183514
 40
0.0153256044619264
 40
0.0307107503490766
 40
0.0460958962362268
 40
0.061481042123377
 40
0.0922513338976774
 40
0.1230216256719777
 40
0.1537919174462781
 40
0.1845622092205784
 40
0.2461027927691791
 40
0.3076433763177798
 40
0.3674432355768542
 40
0.3674432355768542
 40
0.3674432355768542
 40
0.3674432355768542
 10
556.4064145241321
 20
214.8806544574729
 30
0.0
 10
555.8563354802368
 20
213.9955903620008
 30
0.0
 10
554.7187937844802
 20
212.2284584651882
 30
0.0
 10
552.4073656892865
 20
208.8823960966453
 30
0.0
 10
549.4007787661033
 20
204.962642808203
 30
0.0
 10
545.6280569833581
 20
200.6822708027888
 30
0.0
 10
540.3796357686472
 20
195.4994917593035
 30
0.0
 10
533.424442266435
 20
189.9510574833328
 30
0.0
 10
524.4738167736526
 20
184.6070505481732
 30
0.0
 10
514.9454383582416
 20
180.4227265151752
 30
0.0
 10
501.5193813201133
 20
176.2010613838475
 30
0.0
 10
483.5020270994344
 20
173.1316866645678
 30
0.0
 10
460.6135522949989
 20
171.887436031909
 30
0.0
 10
444.8100494083713
 20
171.8796866754723
 30
0.0
 10
436.9501916739793
 20
171.888913124012
 30
0.0
  0
SPLINE
  5
128
330
1F
100
AcDbEntity
  8
0
  6
Continuous
 62
     7
370
    15
100
AcDbSpline
210
0.0
220
0.0
230
1.0
 70
     8
 71
     3
 72
     8
 73
     4
 74
     0
 42
0.000000001
 43
0.00000001
 40
1.036089713116318
 40
1.036089713116318
 40
1.036089713116318
 40
1.036089713116318
 40
1.038096870014759
 40
1.038096870014759
 40
1.038096870014759
 40
1.038096870014759
 10
208.1752960786487
 20
113.2730119505776
 30
0.0
 10
207.9004490982873
 20
113.2748808329498
 30
0.0
 10
207.6256993678003
 20
113.2774267489759
 30
0.0
 10
207.3511035624714
 20
113.2806544574654
 30
0.0
  0
SPLINE
  5
12B
330
1F
100
AcDbEntity
  8
0
  6
Continuous
 62
     7
370
    15
100
AcDbSpline
210
0.0
220
0.0
230
1.0
 70
     8
 71
     3
 72
     8
 73
     4
 74
     0
 42
0.000000001
 43
0.00000001
 40
0.9823751013324762
 40
0.9823751013324762
 40
0.9823751013324762
 40
0.9823751013324762
 40
0.984589795352388
 40
0.984589795352388
 40
0.984589795352388
 40
0.984589795352388
 10
208.2698223896375
 20
127.2427830761119
 30
0.0
 10
207.9914008823701
 20
127.2446577849557
 30
0.0
 10
207.7130575683454
 20
127.2472803930355
 30
0.0
 10
207.4348502729563
 20
127.2506544574654
 30
0.0
  0
LINE
  5
179
330
1F
100
AcDbEntity
  8
0
  6
Continuous
 62
     7
370
    15
100
AcDbLine
 10
153.0557475129
 20
726.0079405674
 30
0.0
 11
153.0557475129
 21
878.6619405674
 31
0.0
  0
LINE
  5
17A
330
1F
100
AcDbEntity
  8
0
  6
Continuous
 62
     7
370
    15
100
AcDbLine
 10
110.8917475129
 20
1285.3706544575
 30
0.0
 11
110.8917475129
 21
66.1706544575
 31
0.0
  0
LINE
  5
17B
330
1F
100
AcDbEntity
  8
0
  6
Continuous
 62
     7
370
    15
100
AcDbLine
 10
139.0857475129
 20
726.0079405674
 30
0.0
 11
139.0857475129
 21
878.6619405674
 31
0.0
  0
LINE
  5
17C
330
1F
100
AcDbEntity
  8
0
  6
Continuous
 62
     7
370
    15
100
AcDbLine
 10
245.7844805088
 20
974.4606544575
 30
0.0
 11
446.8067475129
 21
974.4606544575
 31
0.0
  0
LINE
  5
17D
330
1F
100
AcDbEntity
  8
0
  6
Continuous
 62
     7
370
    15
100
AcDbLine
 10
139.0857475129
 20
905.3319405674
 30
0.0
 11
139.0857475129
 21
937.6306544575
 31
0.0
  0
LINE
  5
17E
330
1F
100
AcDbEntity
  8
0
  6
Continuous
 62
     7
370
    15
100
AcDbLine
 10
473.4767475129
 20
988.4306544575
 30
0.0
 11
539.8977475129
 21
988.4306544575
 31
0.0
  0
LINE
  5
17F
330
1F
100
AcDbEntity
  8
0
  6
Continuous
 62
     7
370
    15
100
AcDbLine
 10
618.8917475129
 20
1285.3706544575
 30
0.0
 11
618.8917475129
 21
66.1706544575
 31
0.0
  0
LINE
  5
180
330
1F
100
AcDbEntity
  8
0
  6
Continuous
 62
     7
370
    15
100
AcDbLine
 10
473.4767475129
 20
974.4606544575
 30
0.0
 11
538.6277475129
 21
974.4606544575
 31
0.0
  0
LINE
  5
181
330
1F
100
AcDbEntity
  8
0
  6
Continuous
 62
     7
370
    15
100
AcDbLine
 10
576.7277475129
 20
840.422828451
 30
0.0
 11
576.7277475129
 21
936.3606544575
 31
0.0
  0
LINE
  5
182
330
1F
100
AcDbEntity
  8
0
  6
Continuous
 62
     7
370
    15
100
AcDbLine
 10
590.6977475129
 20
840.422828451
 30
0.0
 11
590.6977475129
 21
937.6306544575
 31
0.0
  0
LINE
  5
183
330
1F
100
AcDbEntity
  8
0
  6
Continuous
 62
     7
370
    15
100
AcDbLine
 10
153.0557475129
 20
562.3456544575
 30
0.0
 11
153.0557475129
 21
691.2937975124
 31
0.0
  0
LINE
  5
184
330
1F
100
AcDbEntity
  8
0
  6
Continuous
 62
     7
370
    15
100
AcDbLine
 10
576.7277475129
 20
692.4054069209
 30
0.0
 11
576.7277475129
 21
813.752828451
 31
0.0
  0
LINE
  5
185
330
1F
100
AcDbEntity
  8
0
  6
Continuous
 62
     7
370
    15
100
AcDbLine
 10
139.0857475129
 20
562.3456544575
 30
0.0
 11
139.0857475129
 21
691.2937975124
 31
0.0
  0
LINE
  5
186
330
1F
100
AcDbEntity
  8
0
  6
Continuous
 62
     7
370
    15
100
AcDbLine
 10
191.1557475129
 20
974.4606544575
 30
0.0
 11
219.1144805088
 21
974.4606544575
 31
0.0
  0
LINE
  5
187
330
1F
100
AcDbEntity
  8
0
  6
Continuous
 62
     7
370
    15
100
AcDbLine
 10
208.4741423784
 20
556.6306544575
 30
0.0
 11
186.2027475129
 21
556.6306544575
 31
0.0
  0
LINE
  5
188
330
1F
100
AcDbEntity
  8
0
  6
Continuous
 62
     7
370
    15
100
AcDbLine
 10
153.0557475129
 20
524.8806544575
 30
0.0
 11
183.0277475129
 21
524.8806544575
 31
0.0
  0
LINE
  5
189
330
1F
100
AcDbEntity
  8
0
  6
Continuous
 62
     7
370
    15
100
AcDbLine
 10
153.0557475129
 20
524.8806544575
 30
0.0
 11
153.0557475129
 21
535.6756544575
 31
0.0
  0
LINE
  5
18A
330
1F
100
AcDbEntity
  8
0
  6
Continuous
 62
     7
370
    15
100
AcDbLine
 10
153.0557475129
 20
510.9106544575
 30
0.0
 11
183.0277475129
 21
510.9106544575
 31
0.0
  0
LINE
  5
18B
330
1F
100
AcDbEntity
  8
0
  6
Continuous
 62
     7
370
    15
100
AcDbLine
 10
196.9977475129
 20
524.8806544575
 30
0.0
 11
196.9977475129
 21
542.6606544575
 31
0.0
  0
LINE
  5
18C
330
1F
100
AcDbEntity
  8
0
  6
Continuous
 62
     7
370
    15
100
AcDbLine
 10
532.7857475129
 20
542.6606544575
 30
0.0
 11
521.3093526473
 21
542.6606544575
 31
0.0
  0
LINE
  5
18D
330
1F
100
AcDbEntity
  8
0
  6
Continuous
 62
     7
370
    15
100
AcDbLine
 10
532.7857475129
 20
524.8806544575
 30
0.0
 11
532.7857475129
 21
542.6606544575
 31
0.0
  0
LINE
  5
18E
330
1F
100
AcDbEntity
  8
0
  6
Continuous
 62
     7
370
    15
100
AcDbLine
 10
546.7557475129
 20
510.9106544575
 30
0.0
 11
576.7277475129
 21
510.9106544575
 31
0.0
  0
LINE
  5
18F
330
1F
100
AcDbEntity
  8
0
  6
Continuous
 62
     7
370
    15
100
AcDbLine
 10
590.6977475129
 20
524.8806544575
 30
0.0
 11
590.6977475129
 21
535.6756544575
 31
0.0
  0
LINE
  5
190
330
1F
100
AcDbEntity
  8
0
  6
Continuous
 62
     7
370
    15
100
AcDbLine
 10
576.7277475129
 20
524.8806544575
 30
0.0
 11
576.7277475129
 21
535.6756544575
 31
0.0
  0
LINE
  5
191
330
1F
100
AcDbEntity
  8
0
  6
Continuous
 62
     7
370
    15
100
AcDbLine
 10
546.7557475129
 20
524.8806544575
 30
0.0
 11
576.7277475129
 21
524.8806544575
 31
0.0
  0
LINE
  5
192
330
1F
100
AcDbEntity
  8
0
  6
Continuous
 62
     7
370
    15
100
AcDbLine
 10
546.7557475129
 20
524.8806544575
 30
0.0
 11
546.7557475129
 21
553.4556544575
 31
0.0
  0
LINE
  5
193
330
1F
100
AcDbEntity
  8
0
  6
Continuous
 62
     7
370
    15
100
AcDbLine
 10
543.5807475129
 20
556.6306544575
 30
0.0
 11
521.3093526473
 21
556.6306544575
 31
0.0
  0
LINE
  5
194
330
1F
100
AcDbEntity
  8
0
  6
Continuous
 62
     7
370
    15
100
AcDbLine
 10
590.6977475129
 20
562.3456544575
 30
0.0
 11
590.6977475129
 21
665.7354069209
 31
0.0
  0
LINE
  5
197
330
1F
100
AcDbEntity
  8
0
  6
Continuous
 62
     7
370
    15
100
AcDbLine
 10
590.6977475129
 20
692.4054069209
 30
0.0
 11
590.6977475129
 21
813.752828451
 31
0.0
  0
LINE
  5
198
330
1F
100
AcDbEntity
  8
0
  6
Continuous
 62
     7
370
    15
100
AcDbLine
 10
189.8857475129
 20
988.4306544575
 30
0.0
 11
219.1144805088
 21
988.4306544575
 31
0.0
  0
LINE
  5
199
330
1F
100
AcDbEntity
  8
0
  6
Continuous
 62
     7
370
    15
100
AcDbLine
 10
153.0557475129
 20
905.3319405674
 30
0.0
 11
153.0557475129
 21
936.3606544575
 31
0.0
  0
LINE
  5
19A
330
1F
100
AcDbEntity
  8
0
  6
Continuous
 62
     7
370
    15
100
AcDbLine
 10
245.7844805088
 20
988.4306544575
 30
0.0
 11
446.8067475129
 21
988.4306544575
 31
0.0
  0
LINE
  5
19B
330
1F
100
AcDbEntity
  8
0
  6
Continuous
 62
     7
370
    15
100
AcDbLine
 10
183.0277475129
 20
524.8806544575
 30
0.0
 11
183.0277475129
 21
553.4556544575
 31
0.0
  0
LINE
  5
19C
330
1F
100
AcDbEntity
  8
0
  6
Continuous
 62
     7
370
    15
100
AcDbLine
 10
139.0857475129
 20
524.8806544575
 30
0.0
 11
139.0857475129
 21
535.6756544575
 31
0.0
  0
LINE
  5
19D
330
1F
100
AcDbEntity
  8
0
  6
Continuous
 62
     7
370
    15
100
AcDbLine
 10
208.4741423784
 20
542.6606544575
 30
0.0
 11
196.9977475129
 21
542.6606544575
 31
0.0
  0
LINE
  5
19E
330
1F
100
AcDbEntity
  8
0
  6
Continuous
 62
     7
370
    15
100
AcDbLine
 10
576.7277475129
 20
562.3456544575
 30
0.0
 11
576.7277475129
 21
665.7354069209
 31
0.0
  0
LINE
  5
19F
330
1F
100
AcDbEntity
  8
0
  6
Continuous
 62
     7
370
    15
100
AcDbLine
 10
484.0136399448
 20
437.2506544575
 30
0.0
 11
556.4064642316
 21
437.2506544575
 31
0.0
  0
LINE
  5
1A0
330
1F
100
AcDbEntity
  8
0
  6
Continuous
 62
     7
370
    15
100
AcDbLine
 10
484.0136399448
 20
423.2806544575
 30
0.0
 11
556.4064145241
 21
423.2806544575
 31
0.0
  0
LINE
  5
1A1
330
1F
100
AcDbEntity
  8
0
  6
Continuous
 62
     7
370
    15
100
AcDbLine
 10
284.8917395795
 20
437.2506544575
 30
0.0
 11
457.3436399448
 21
437.2506544575
 31
0.0
  0
LINE
  5
1A2
330
1F
100
AcDbEntity
  8
0
  6
Continuous
 62
     7
370
    15
100
AcDbLine
 10
284.8917395795
 20
423.2806544575
 30
0.0
 11
457.3436399448
 21
423.2806544575
 31
0.0
  0
LINE
  5
1A3
330
1F
100
AcDbEntity
  8
0
  6
Continuous
 62
     7
370
    15
100
AcDbLine
 10
197.2517475129
 20
360.5426544575
 30
0.0
 11
197.2517475129
 21
423.2806544575
 31
0.0
  0
LINE
  5
1A4
330
1F
100
AcDbEntity
  8
0
  6
Continuous
 62
     7
370
    15
100
AcDbLine
 10
179.4717475129
 20
360.5426544575
 30
0.0
 11
197.2517475129
 21
360.5426544575
 31
0.0
  0
LINE
  5
1A5
330
1F
100
AcDbEntity
  8
0
  6
Continuous
 62
     7
370
    15
100
AcDbLine
 10
165.5017475129
 20
335.6506544575
 30
0.0
 11
165.5017475129
 21
346.5726544575
 31
0.0
  0
LINE
  5
1A6
330
1F
100
AcDbEntity
  8
0
  6
Continuous
 62
     7
370
    15
100
AcDbLine
 10
207.3511035625
 20
321.6806544575
 30
0.0
 11
179.4717475129
 21
321.6806544575
 31
0.0
  0
LINE
  5
1A7
330
1F
100
AcDbEntity
  8
0
  6
Continuous
 62
     7
370
    15
100
AcDbLine
 10
207.434850273
 20
335.6506544575
 30
0.0
 11
179.4717475129
 21
335.6506544575
 31
0.0
  0
LINE
  5
1A8
330
1F
100
AcDbEntity
  8
0
  6
Continuous
 62
     7
370
    15
100
AcDbLine
 10
179.4717475129
 20
335.6506544575
 30
0.0
 11
179.4717475129
 21
346.5726544575
 31
0.0
  0
LINE
  5
1A9
330
1F
100
AcDbEntity
  8
0
  6
Continuous
 62
     7
370
    15
100
AcDbLine
 10
179.4717475129
 20
346.5726544575
 30
0.0
 11
204.2367475129
 21
346.5726544575
 31
0.0
  0
LINE
  5
1AA
330
1F
100
AcDbEntity
  8
0
  6
Continuous
 62
     7
370
    15
100
AcDbLine
 10
211.2217475129
 20
423.2806544575
 30
0.0
 11
211.2217475129
 21
353.5576544575
 31
0.0
  0
LINE
  5
1AB
330
1F
100
AcDbEntity
  8
0
  6
Continuous
 62
     7
370
    15
100
AcDbLine
 10
211.2217475129
 20
423.2806544575
 30
0.0
 11
258.2217395795
 21
423.2806544575
 31
0.0
  0
LINE
  5
1AC
330
1F
100
AcDbEntity
  8
0
  6
Continuous
 62
     7
370
    15
100
AcDbLine
 10
211.2217475129
 20
437.2506544575
 30
0.0
 11
258.2217395795
 21
437.2506544575
 31
0.0
  0
LINE
  5
1AD
330
1F
100
AcDbEntity
  8
0
  6
Continuous
 62
   144
370
     0
100
AcDbLine
 10
215.2077910214
 20
328.6579414136
 30
0.0
 11
215.2077910214
 21
328.6578504763
 31
0.0
  0
LINE
  5
1AE
330
1F
100
AcDbEntity
  8
0
  6
Continuous
 62
   144
370
     0
100
AcDbLine
 10
429.9569922
 20
373.3035091654
 30
0.0
 11
429.9569922
 21
373.3039179366
 31
0.0
  0
LINE
  5
1AF
330
1F
100
AcDbEntity
  8
0
  6
Continuous
 62
   144
370
     0
100
AcDbLine
 10
417.2569922
 20
373.1174411869
 30
0.0
 11
417.2569922
 21
373.1170506455
 31
0.0
  0
LINE
  5
1B1
330
1F
100
AcDbEntity
  8
0
  6
Continuous
 62
     7
370
    15
100
AcDbLine
 10
110.8917475129
 20
66.1706544575
 30
0.0
 11
618.8917475129
 21
66.1706544575
 31
0.0
  0
LINE
  5
1B2
330
1F
100
AcDbEntity
  8
0
  6
Continuous
 62
     7
370
    15
100
AcDbLine
 10
484.0136399448
 20
228.8506544575
 30
0.0
 11
556.4064642316
 21
228.8506544575
 31
0.0
  0
LINE
  5
1B3
330
1F
100
AcDbEntity
  8
0
  6
Continuous
 62
     7
370
    15
100
AcDbLine
 10
484.0136399448
 20
214.8806544575
 30
0.0
 11
556.4064145241
 21
214.8806544575
 31
0.0
  0
LINE
  5
1B4
330
1F
100
AcDbEntity
  8
0
  6
Continuous
 62
     7
370
    15
100
AcDbLine
 10
284.8917395795
 20
228.8506544575
 30
0.0
 11
457.3436399448
 21
228.8506544575
 31
0.0
  0
LINE
  5
1B5
330
1F
100
AcDbEntity
  8
0
  6
Continuous
 62
     7
370
    15
100
AcDbLine
 10
284.8917395795
 20
214.8806544575
 30
0.0
 11
457.3436399448
 21
214.8806544575
 31
0.0
  0
LINE
  5
1B6
330
1F
100
AcDbEntity
  8
0
  6
Continuous
 62
     7
370
    15
100
AcDbLine
 10
197.2517475129
 20
152.1426544575
 30
0.0
 11
197.2517475129
 21
214.8806544575
 31
0.0
  0
LINE
  5
1B7
330
1F
100
AcDbEntity
  8
0
  6
Continuous
 62
     7
370
    15
100
AcDbLine
 10
179.4717475129
 20
152.1426544575
 30
0.0
 11
197.2517475129
 21
152.1426544575
 31
0.0
  0
LINE
  5
1B8
330
1F
100
AcDbEntity
  8
0
  6
Continuous
 62
     7
370
    15
100
AcDbLine
 10
165.5017475129
 20
127.2506544575
 30
0.0
 11
165.5017475129
 21
138.1726544575
 31
0.0
  0
LINE
  5
1B9
330
1F
100
AcDbEntity
  8
0
  6
Continuous
 62
     7
370
    15
100
AcDbLine
 10
207.3511035625
 20
113.2806544575
 30
0.0
 11
179.4717475129
 21
113.2806544575
 31
0.0
  0
LINE
  5
1BA
330
1F
100
AcDbEntity
  8
0
  6
Continuous
 62
     7
370
    15
100
AcDbLine
 10
207.434850273
 20
127.2506544575
 30
0.0
 11
179.4717475129
 21
127.2506544575
 31
0.0
  0
LINE
  5
1BB
330
1F
100
AcDbEntity
  8
0
  6
Continuous
 62
     7
370
    15
100
AcDbLine
 10
179.4717475129
 20
127.2506544575
 30
0.0
 11
179.4717475129
 21
138.1726544575
 31
0.0
  0
LINE
  5
1BC
330
1F
100
AcDbEntity
  8
0
  6
Continuous
 62
     7
370
    15
100
AcDbLine
 10
179.4717475129
 20
138.1726544575
 30
0.0
 11
204.2367475129
 21
138.1726544575
 31
0.0
  0
LINE
  5
1BD
330
1F
100
AcDbEntity
  8
0
  6
Continuous
 62
     7
370
    15
100
AcDbLine
 10
211.2217475129
 20
214.8806544575
 30
0.0
 11
211.2217475129
 21
145.1576544575
 31
0.0
  0
LINE
  5
1BE
330
1F
100
AcDbEntity
  8
0
  6
Continuous
 62
     7
370
    15
100
AcDbLine
 10
211.2217475129
 20
214.8806544575
 30
0.0
 11
258.2217395795
 21
214.8806544575
 31
0.0
  0
LINE
  5
1BF
330
1F
100
AcDbEntity
  8
0
  6
Continuous
 62
     7
370
    15
100
AcDbLine
 10
211.2217475129
 20
228.8506544575
 30
0.0
 11
258.2217395795
 21
228.8506544575
 31
0.0
  0
LINE
  5
1C0
330
1F
100
AcDbEntity
  8
0
  6
Continuous
 62
   144
370
     0
100
AcDbLine
 10
215.2077910214
 20
120.2579414136
 30
0.0
 11
215.2077910214
 21
120.2578504763
 31
0.0
  0
LINE
  5
1C1
330
1F
100
AcDbEntity
  8
0
  6
Continuous
 62
   144
370
     0
100
AcDbLine
 10
429.9569922
 20
164.9035091654
 30
0.0
 11
429.9569922
 21
164.9039179366
 31
0.0
  0
LINE
  5
1C2
330
1F
100
AcDbEntity
  8
0
  6
Continuous
 62
   144
370
     0
100
AcDbLine
 10
417.2569922
 20
164.7174411869
 30
0.0
 11
417.2569922
 21
164.7170506455
 31
0.0
  0
LINE
  5
1C3
330
1F
100
AcDbEntity
  8
0
  6
Continuous
 62
     7
370
    15
100
AcDbLine
 10
110.8917475129
 20
1285.3706544575
 30
0.0
 11
618.8917475129
 21
1285.3706544575
 31
0.0
  0
LINE
  5
1C4
330
1F
100
AcDbEntity
  8
0
  6
Continuous
 62
     7
370
    15
100
AcDbLine
 10
601.1117475129
 20
1238.6206544575
 30
0.0
 11
601.1117475129
 21
1156.7056544575
 31
0.0
  0
LINE
  5
1C5
330
1F
100
AcDbEntity
  8
0
  6
Continuous
 62
     7
370
    15
100
AcDbLine
 10
373.1467475129
 20
1252.5906544575
 30
0.0
 11
587.1417475129
 21
1252.5906544575
 31
0.0
  0
LINE
  5
1C6
330
1F
100
AcDbEntity
  8
0
  6
Continuous
 62
     7
370
    15
100
AcDbLine
 10
373.1467475129
 20
1238.6206544575
 30
0.0
 11
587.1417475129
 21
1238.6206544575
 31
0.0
  0
LINE
  5
1C7
330
1F
100
AcDbEntity
  8
0
  6
Continuous
 62
     7
370
    15
100
AcDbLine
 10
587.1417475129
 20
1238.6206544575
 30
0.0
 11
587.1417475129
 21
1156.7056544575
 31
0.0
  0
LINE
  5
1C8
330
1F
100
AcDbEntity
  8
0
  6
Continuous
 62
     7
370
    15
100
AcDbLine
 10
210.5867475129
 20
1215.5898147792
 30
0.0
 11
210.5867475129
 21
1152.0898147792
 31
0.0
  0
LINE
  5
1C9
330
1F
100
AcDbEntity
  8
0
  6
Continuous
 62
     7
370
    15
100
AcDbLine
 10
196.6167475129
 20
1215.5898147792
 30
0.0
 11
196.6167475129
 21
1152.0898147792
 31
0.0
  0
LINE
  5
1CA
330
1F
100
AcDbEntity
  8
0
  6
Continuous
 62
     7
370
    15
100
AcDbLine
 10
342.6667475129
 20
1152.0898147792
 30
0.0
 11
342.6667475129
 21
1215.5898147792
 31
0.0
  0
LINE
  5
1CB
330
1F
100
AcDbEntity
  8
0
  6
Continuous
 62
     7
370
    15
100
AcDbLine
 10
356.6367475129
 20
1152.0898147792
 30
0.0
 11
356.6367475129
 21
1215.5898147792
 31
0.0
  0
LINE
  5
1CC
330
1F
100
AcDbEntity
  8
0
  6
Continuous
 62
     7
370
    15
100
AcDbLine
 10
382.0367475129
 20
1215.5898147792
 30
0.0
 11
382.0367475129
 21
1152.0898147792
 31
0.0
  0
LINE
  5
1CD
330
1F
100
AcDbEntity
  8
0
  6
Continuous
 62
     7
370
    15
100
AcDbLine
 10
368.0667475129
 20
1215.5898147792
 30
0.0
 11
368.0667475129
 21
1152.0898147792
 31
0.0
  0
LINE
  5
1CE
330
1F
100
AcDbEntity
  8
0
  6
Continuous
 62
     7
370
    15
100
AcDbLine
 10
514.1167475129
 20
1152.0898147792
 30
0.0
 11
514.1167475129
 21
1215.5898147792
 31
0.0
  0
LINE
  5
1CF
330
1F
100
AcDbEntity
  8
0
  6
Continuous
 62
     7
370
    15
100
AcDbLine
 10
528.0867475129
 20
1152.0898147792
 30
0.0
 11
528.0867475129
 21
1215.5898147792
 31
0.0
  0
LINE
  5
1D0
330
1F
100
AcDbEntity
  8
0
  6
Continuous
 62
     7
370
    15
100
AcDbLine
 10
185.1867475129
 20
1215.5898147792
 30
0.0
 11
185.1867475129
 21
1152.0898147792
 31
0.0
  0
LINE
  5
1D1
330
1F
100
AcDbEntity
  8
0
  6
Continuous
 62
     7
370
    15
100
AcDbLine
 10
171.2167475129
 20
1215.5898147792
 30
0.0
 11
171.2167475129
 21
1152.0898147792
 31
0.0
  0
LINE
  5
1D2
330
1F
100
AcDbEntity
  8
0
  6
Continuous
 62
     7
370
    15
100
AcDbLine
 10
553.4867475129
 20
1215.5898147792
 30
0.0
 11
553.4867475129
 21
1152.0898147792
 31
0.0
  0
LINE
  5
1D3
330
1F
100
AcDbEntity
  8
0
  6
Continuous
 62
     7
370
    15
100
AcDbLine
 10
539.5167475129
 20
1215.5898147792
 30
0.0
 11
539.5167475129
 21
1152.0898147792
 31
0.0
  0
LINE
  5
1D4
330
1F
100
AcDbEntity
  8
0
  6
Continuous
 62
     7
370
    15
100
AcDbLine
 10
137.5617475129
 20
1238.6206544575
 30
0.0
 11
346.4767475129
 21
1238.6206544575
 31
0.0
  0
LINE
  5
1D5
330
1F
100
AcDbEntity
  8
0
  6
Continuous
 62
     7
370
    15
100
AcDbLine
 10
137.5617475129
 20
1252.5906544575
 30
0.0
 11
346.4767475129
 21
1252.5906544575
 31
0.0
  0
LINE
  5
1D6
330
1F
100
AcDbEntity
  8
0
  6
Continuous
 62
     7
370
    15
100
AcDbLine
 10
123.5917475129
 20
1238.6206544575
 30
0.0
 11
123.5917475129
 21
1156.7056544575
 31
0.0
  0
LINE
  5
1D7
330
1F
100
AcDbEntity
  8
0
  6
Continuous
 62
     7
370
    15
100
AcDbLine
 10
137.5617475129
 20
1238.6206544575
 30
0.0
 11
137.5617475129
 21
1156.7056544575
 31
0.0
  0
LINE
  5
1D8
330
1F
100
AcDbEntity
  8
0
  6
Continuous
 62
     7
370
    15
100
AcDbLine
 10
587.1417475129
 20
1130.0356544575
 30
0.0
 11
587.1417475129
 21
1043.0406544575
 31
0.0
  0
LINE
  5
1D9
330
1F
100
AcDbEntity
  8
0
  6
Continuous
 62
     7
370
    15
100
AcDbLine
 10
373.1467475129
 20
1043.0406544575
 30
0.0
 11
587.1417475129
 21
1043.0406544575
 31
0.0
  0
LINE
  5
1DA
330
1F
100
AcDbEntity
  8
0
  6
Continuous
 62
     7
370
    15
100
AcDbLine
 10
373.1467475129
 20
1029.0706544575
 30
0.0
 11
587.1417475129
 21
1029.0706544575
 31
0.0
  0
LINE
  5
1DB
330
1F
100
AcDbEntity
  8
0
  6
Continuous
 62
     7
370
    15
100
AcDbLine
 10
601.1117475129
 20
1130.0356544575
 30
0.0
 11
601.1117475129
 21
1043.0406544575
 31
0.0
  0
LINE
  5
1DC
330
1F
100
AcDbEntity
  8
0
  6
Continuous
 62
     7
370
    15
100
AcDbLine
 10
137.5617475129
 20
1130.0356544575
 30
0.0
 11
137.5617475129
 21
1043.0406544575
 31
0.0
  0
LINE
  5
1DD
330
1F
100
AcDbEntity
  8
0
  6
Continuous
 62
     7
370
    15
100
AcDbLine
 10
123.5917475129
 20
1130.0356544575
 30
0.0
 11
123.5917475129
 21
1043.0406544575
 31
0.0
  0
LINE
  5
1DE
330
1F
100
AcDbEntity
  8
0
  6
Continuous
 62
     7
370
    15
100
AcDbLine
 10
137.5617475129
 20
1029.0706544575
 30
0.0
 11
346.4767475129
 21
1029.0706544575
 31
0.0
  0
LINE
  5
1DF
330
1F
100
AcDbEntity
  8
0
  6
Continuous
 62
     7
370
    15
100
AcDbLine
 10
137.5617475129
 20
1043.0406544575
 30
0.0
 11
346.4767475129
 21
1043.0406544575
 31
0.0
  0
ARC
  5
1E0
330
1F
100
AcDbEntity
  8
0
  6
Continuous
 62
     7
370
    15
100
AcDbCircle
 10
583.7127475129
 20
692.4054069209
 30
0.0
 40
6.985000000000241
100
AcDbArc
 50
180.0
 51
360.0
  0
ARC
  5
1E1
330
1F
100
AcDbEntity
  8
0
  6
Continuous
 62
     7
370
    15
100
AcDbCircle
 10
146.0707475129
 20
878.6619405674
 30
0.0
 40
6.985000000000014
100
AcDbArc
 50
0.0
 51
180.0
  0
ARC
  5
1E2
330
1F
100
AcDbEntity
  8
0
  6
Continuous
 62
     7
370
    15
100
AcDbCircle
 10
146.0707475129
 20
726.0079405674
 30
0.0
 40
6.985000000000099
100
AcDbArc
 50
180.0
 51
0.0
  0
ARC
  5
1E3
330
1F
100
AcDbEntity
  8
0
  6
Continuous
 62
     7
370
    15
100
AcDbCircle
 10
191.1557475129
 20
936.3606544575
 30
0.0
 40
38.10000000000005
100
AcDbArc
 50
90.0
 51
180.0
  0
ARC
  5
1E4
330
1F
100
AcDbEntity
  8
0
  6
Continuous
 62
     7
370
    15
100
AcDbCircle
 10
146.0707475129
 20
905.3319405674
 30
0.0
 40
6.984999999999985
100
AcDbArc
 50
180.0
 51
0.0
  0
ARC
  5
1E5
330
1F
100
AcDbEntity
  8
0
  6
Continuous
 62
     7
370
    15
100
AcDbCircle
 10
189.8857475129
 20
937.6306544575
 30
0.0
 40
50.80000000000018
100
AcDbArc
 50
90.0
 51
180.0
  0
ARC
  5
1E6
330
1F
100
AcDbEntity
  8
0
  6
Continuous
 62
     7
370
    15
100
AcDbCircle
 10
219.1144805088
 20
981.4456544575
 30
0.0
 40
6.985000000000014
100
AcDbArc
 50
270.0
 51
90.0
  0
ARC
  5
1E7
330
1F
100
AcDbEntity
  8
0
  6
Continuous
 62
     7
370
    15
100
AcDbCircle
 10
446.8067475129
 20
981.4456544575
 30
0.0
 40
6.985000000000127
100
AcDbArc
 50
270.0
 51
90.0
  0
ARC
  5
1E8
330
1F
100
AcDbEntity
  8
0
  6
Continuous
 62
     7
370
    15
100
AcDbCircle
 10
583.7127475129
 20
813.752828451
 30
0.0
 40
6.985000000000468
100
AcDbArc
 50
0.0
 51
180.0
  0
ARC
  5
1E9
330
1F
100
AcDbEntity
  8
0
  6
Continuous
 62
     7
370
    15
100
AcDbCircle
 10
539.8977475129
 20
937.6306544575
 30
0.0
 40
50.80000000000007
100
AcDbArc
 50
0.0
 51
90.0
  0
ARC
  5
1EA
330
1F
100
AcDbEntity
  8
0
  6
Continuous
 62
     7
370
    15
100
AcDbCircle
 10
473.4767475129
 20
981.4456544575
 30
0.0
 40
6.985000000000014
100
AcDbArc
 50
90.0
 51
270.0
  0
ARC
  5
1EB
330
1F
100
AcDbEntity
  8
0
  6
Continuous
 62
     7
370
    15
100
AcDbCircle
 10
583.7127475129
 20
840.422828451
 30
0.0
 40
6.985000000000241
100
AcDbArc
 50
180.0
 51
360.0
  0
ARC
  5
1EC
330
1F
100
AcDbEntity
  8
0
  6
Continuous
 62
     7
370
    15
100
AcDbCircle
 10
146.0707475129
 20
691.2937975124
 30
0.0
 40
6.985000000000014
100
AcDbArc
 50
0.0
 51
180.0
  0
ARC
  5
1ED
330
1F
100
AcDbEntity
  8
0
  6
Continuous
 62
     7
370
    15
100
AcDbCircle
 10
146.0707475129
 20
562.3456544575
 30
0.0
 40
6.985000000000042
100
AcDbArc
 50
180.0
 51
0.0
  0
ARC
  5
1EE
330
1F
100
AcDbEntity
  8
0
  6
Continuous
 62
     7
370
    15
100
AcDbCircle
 10
351.5567475129
 20
701.7036595857
 30
0.0
 40
6.985000000000259
100
AcDbArc
 50
275.1181523013
 51
95.1181523013
  0
ARC
  5
1EF
330
1F
100
AcDbEntity
  8
0
  6
Continuous
 62
     7
370
    15
100
AcDbCircle
 10
364.8917475129
 20
552.8206544575
 30
0.0
 40
156.4640000000006
100
AcDbArc
 50
95.1181523013
 51
164.9813532058
  0
ARC
  5
1F0
330
1F
100
AcDbEntity
  8
0
  6
Continuous
 62
     7
370
    15
100
AcDbCircle
 10
220.5187195055
 20
591.5556544575
 30
0.0
 40
6.985000000000116
100
AcDbArc
 50
164.9813532058
 51
344.9813532058
  0
ARC
  5
1F1
330
1F
100
AcDbEntity
  8
0
  6
Continuous
 62
     7
370
    15
100
AcDbCircle
 10
364.8917475129
 20
552.8206544575
 30
0.0
 40
142.4940000000009
100
AcDbArc
 50
95.1181523013
 51
164.9813532058
  0
ARC
  5
1F2
330
1F
100
AcDbEntity
  8
0
  6
Continuous
 62
     7
370
    15
100
AcDbCircle
 10
186.2027475129
 20
553.4556544575
 30
0.0
 40
3.174999999999955
100
AcDbArc
 50
90.0
 51
180.0
  0
ARC
  5
1F3
330
1F
100
AcDbEntity
  8
0
  6
Continuous
 62
     7
370
    15
100
AcDbCircle
 10
146.0707475129
 20
535.6756544575
 30
0.0
 40
6.985000000000241
100
AcDbArc
 50
0.0
 51
180.0
  0
ARC
  5
1F4
330
1F
100
AcDbEntity
  8
0
  6
Continuous
 62
     7
370
    15
100
AcDbCircle
 10
245.7844805088
 20
981.4456544575
 30
0.0
 40
6.985000000000014
100
AcDbArc
 50
90.0
 51
270.0
  0
ARC
  5
1F5
330
1F
100
AcDbEntity
  8
0
  6
Continuous
 62
     7
370
    15
100
AcDbCircle
 10
153.0557475129
 20
524.8806544575
 30
0.0
 40
13.97000000000014
100
AcDbArc
 50
180.0
 51
270.0
  0
ARC
  5
1F6
330
1F
100
AcDbEntity
  8
0
  6
Continuous
 62
     7
370
    15
100
AcDbCircle
 10
183.0277475129
 20
524.8806544575
 30
0.0
 40
13.96999999999991
100
AcDbArc
 50
270.0
 51
0.0
  0
ARC
  5
1F7
330
1F
100
AcDbEntity
  8
0
  6
Continuous
 62
     7
370
    15
100
AcDbCircle
 10
208.4741423784
 20
556.6306544575
 30
0.0
 40
13.96999999999981
100
AcDbArc
 50
270.0
 51
358.6046726464
  0
ARC
  5
1F8
330
1F
100
AcDbEntity
  8
0
  6
Continuous
 62
     7
370
    15
100
AcDbCircle
 10
364.8917475129
 20
552.8206544575
 30
0.0
 40
142.4940000000988
100
AcDbArc
 50
175.3704108143
 51
178.6046726464
  0
ARC
  5
1F9
330
1F
100
AcDbEntity
  8
0
  6
Continuous
 62
     7
370
    15
100
AcDbCircle
 10
215.9004483843
 20
564.8856544575
 30
0.0
 40
6.985000000000071
100
AcDbArc
 50
355.3704108143
 51
175.3704108143
  0
ARC
  5
1FA
330
1F
100
AcDbEntity
  8
0
  6
Continuous
 62
     7
370
    15
100
AcDbCircle
 10
364.8917475129
 20
552.8206544575
 30
0.0
 40
156.4640000000504
100
AcDbArc
 50
175.3704108143
 51
178.6046726464
  0
ARC
  5
1FB
330
1F
100
AcDbEntity
  8
0
  6
Continuous
 62
     7
370
    15
100
AcDbCircle
 10
521.3093526473
 20
556.6306544575
 30
0.0
 40
13.96999999999996
100
AcDbArc
 50
181.3953273536
 51
270.0
  0
ARC
  5
1FC
330
1F
100
AcDbEntity
  8
0
  6
Continuous
 62
     7
370
    15
100
AcDbCircle
 10
546.7557475129
 20
524.8806544575
 30
0.0
 40
13.96999999999991
100
AcDbArc
 50
180.0
 51
270.0
  0
ARC
  5
1FD
330
1F
100
AcDbEntity
  8
0
  6
Continuous
 62
     7
370
    15
100
AcDbCircle
 10
576.7277475129
 20
524.8806544575
 30
0.0
 40
13.96999999999991
100
AcDbArc
 50
270.0
 51
0.0
  0
ARC
  5
1FE
330
1F
100
AcDbEntity
  8
0
  6
Continuous
 62
     7
370
    15
100
AcDbCircle
 10
583.7127475129
 20
535.6756544575
 30
0.0
 40
6.985000000000468
100
AcDbArc
 50
0.0
 51
180.0
  0
ARC
  5
1FF
330
1F
100
AcDbEntity
  8
0
  6
Continuous
 62
     7
370
    15
100
AcDbCircle
 10
543.5807475129
 20
553.4556544575
 30
0.0
 40
3.175000000000068
100
AcDbArc
 50
0.0
 51
90.0
  0
ARC
  5
200
330
1F
100
AcDbEntity
  8
0
  6
Continuous
 62
     7
370
    15
100
AcDbCircle
 10
364.8917475129
 20
552.8206544575
 30
0.0
 40
156.4639999999395
100
AcDbArc
 50
1.3953273536
 51
4.6295891857
  0
ARC
  5
201
330
1F
100
AcDbEntity
  8
0
  6
Continuous
 62
     7
370
    15
100
AcDbCircle
 10
513.8830466414
 20
564.8856544575
 30
0.0
 40
6.98500000000026
100
AcDbArc
 50
4.6295891857
 51
184.6295891857
  0
ARC
  5
202
330
1F
100
AcDbEntity
  8
0
  6
Continuous
 62
     7
370
    15
100
AcDbCircle
 10
364.8917475129
 20
552.8206544575
 30
0.0
 40
142.4939999999933
100
AcDbArc
 50
1.3953273536
 51
4.6295891857
  0
ARC
  5
203
330
1F
100
AcDbEntity
  8
0
  6
Continuous
 62
     7
370
    15
100
AcDbCircle
 10
378.2267475129
 20
701.7036595857
 30
0.0
 40
6.985000000000249
100
AcDbArc
 50
84.8818476987
 51
264.8818476987
  0
ARC
  5
204
330
1F
100
AcDbEntity
  8
0
  6
Continuous
 62
     7
370
    15
100
AcDbCircle
 10
364.8917475128
 20
552.8206544575
 30
0.0
 40
142.4940000000005
100
AcDbArc
 50
15.0186467942
 51
84.8818476987
  0
ARC
  5
205
330
1F
100
AcDbEntity
  8
0
  6
Continuous
 62
     7
370
    15
100
AcDbCircle
 10
509.2647755202
 20
591.5556544575
 30
0.0
 40
6.984999999999927
100
AcDbArc
 50
195.0186467942
 51
15.0186467942
  0
ARC
  5
206
330
1F
100
AcDbEntity
  8
0
  6
Continuous
 62
     7
370
    15
100
AcDbCircle
 10
364.8917475128
 20
552.8206544575
 30
0.0
 40
156.4640000000004
100
AcDbArc
 50
15.0186467942
 51
84.8818476987
  0
ARC
  5
207
330
1F
100
AcDbEntity
  8
0
  6
Continuous
 62
     7
370
    15
100
AcDbCircle
 10
583.7127475129
 20
665.7354069209
 30
0.0
 40
6.985000000000468
100
AcDbArc
 50
0.0
 51
180.0
  0
ARC
  5
208
330
1F
100
AcDbEntity
  8
0
  6
Continuous
 62
     7
370
    15
100
AcDbCircle
 10
583.7127475129
 20
562.3456544575
 30
0.0
 40
6.985000000000241
100
AcDbArc
 50
180.0
 51
360.0
  0
ARC
  5
209
330
1F
100
AcDbEntity
  8
0
  6
Continuous
 62
     7
370
    15
100
AcDbCircle
 10
538.6277475129
 20
936.3606544575
 30
0.0
 40
38.10000000000025
100
AcDbArc
 50
0.0
 51
90.0
  0
ARC
  5
20A
330
1F
100
AcDbEntity
  8
0
  6
Continuous
 62
     7
370
    15
100
AcDbCircle
 10
234.8927910214
 20
330.5807943389
 30
0.0
 40
6.984999999993057
100
AcDbArc
 50
98.3403995269
 51
180.0000677776
  0
ARC
  5
20B
330
1F
100
AcDbEntity
  8
0
  6
Continuous
 62
     7
370
    15
100
AcDbCircle
 10
234.8927910214
 20
330.580786076
 30
0.0
 40
6.985000000000042
100
AcDbArc
 50
180.0
 51
278.3397393552
  0
ARC
  5
20C
330
1F
100
AcDbEntity
  8
0
  6
Continuous
 62
     7
370
    15
100
AcDbCircle
 10
410.2719922
 20
373.1170506455
 30
0.0
 40
6.984999999999865
100
AcDbArc
 50
271.4617100665
 51
0.0
  0
ARC
  5
20D
330
1F
100
AcDbEntity
  8
0
  6
Continuous
 62
     7
370
    15
100
AcDbCircle
 10
410.2719922
 20
373.1174411869
 30
0.0
 40
6.98499999999991
100
AcDbArc
 50
0.0
 51
91.4460819948
  0
ARC
  5
20E
330
1F
100
AcDbEntity
  8
0
  6
Continuous
 62
     7
370
    15
100
AcDbCircle
 10
556.4064642316
 20
423.2806544575
 30
0.0
 40
13.96999999999991
100
AcDbArc
 50
328.1372875637
 51
90.0
  0
ARC
  5
20F
330
1F
100
AcDbEntity
  8
0
  6
Continuous
 62
     7
370
    15
100
AcDbCircle
 10
484.0136399448
 20
430.2656544575
 30
0.0
 40
6.98500000000007
100
AcDbArc
 50
90.0
 51
270.0
  0
ARC
  5
210
330
1F
100
AcDbEntity
  8
0
  6
Continuous
 62
     7
370
    15
100
AcDbCircle
 10
436.9419922
 20
373.3039179366
 30
0.0
 40
6.985000000000029
100
AcDbArc
 50
89.9327422536
 51
180.0
  0
ARC
  5
211
330
1F
100
AcDbEntity
  8
0
  6
Continuous
 62
     7
370
    15
100
AcDbCircle
 10
436.9419922
 20
373.3035091654
 30
0.0
 40
6.984999999999959
100
AcDbArc
 50
180.0
 51
269.9306184242
  0
ARC
  5
212
330
1F
100
AcDbEntity
  8
0
  6
Continuous
 62
     7
370
    15
100
AcDbCircle
 10
457.3436399448
 20
430.2656544575
 30
0.0
 40
6.985000000000127
100
AcDbArc
 50
270.0
 51
90.0
  0
ARC
  5
213
330
1F
100
AcDbEntity
  8
0
  6
Continuous
 62
     7
370
    15
100
AcDbCircle
 10
284.8917395795
 20
430.2656544575
 30
0.0
 40
6.98500000000007
100
AcDbArc
 50
90.0
 51
270.0
  0
ARC
  5
214
330
1F
100
AcDbEntity
  8
0
  6
Continuous
 62
     7
370
    15
100
AcDbCircle
 10
211.2217475129
 20
423.2806544575
 30
0.0
 40
13.96999999999994
100
AcDbArc
 50
90.0
 51
180.0
  0
ARC
  5
215
330
1F
100
AcDbEntity
  8
0
  6
Continuous
 62
     7
370
    15
100
AcDbCircle
 10
179.4717475129
 20
346.5726544575
 30
0.0
 40
13.96999999999997
100
AcDbArc
 50
90.0
 51
180.0
  0
ARC
  5
216
330
1F
100
AcDbEntity
  8
0
  6
Continuous
 62
     7
370
    15
100
AcDbCircle
 10
179.4717475129
 20
335.6506544575
 30
0.0
 40
13.97
100
AcDbArc
 50
180.0
 51
270.0
  0
ARC
  5
217
330
1F
100
AcDbEntity
  8
0
  6
Continuous
 62
     7
370
    15
100
AcDbCircle
 10
208.2227910214
 20
328.6578504763
 30
0.0
 40
6.984999999999931
100
AcDbArc
 50
269.610410775
 51
0.0
  0
ARC
  5
218
330
1F
100
AcDbEntity
  8
0
  6
Continuous
 62
     7
370
    15
100
AcDbCircle
 10
208.2227910214
 20
328.6579414136
 30
0.0
 40
6.98499999999992
100
AcDbArc
 50
0.0
 51
89.6142134192
  0
ARC
  5
219
330
1F
100
AcDbEntity
  8
0
  6
Continuous
 62
     7
370
    15
100
AcDbCircle
 10
204.2367475129
 20
353.5576544575
 30
0.0
 40
6.984999999999957
100
AcDbArc
 50
270.0
 51
0.0
  0
ARC
  5
21A
330
1F
100
AcDbEntity
  8
0
  6
Continuous
 62
     7
370
    15
100
AcDbCircle
 10
258.2217395795
 20
430.2656544575
 30
0.0
 40
6.985000000000184
100
AcDbArc
 50
270.0
 51
90.0
  0
ARC
  5
21B
330
1F
100
AcDbEntity
  8
0
  6
Continuous
 62
     7
370
    15
100
AcDbCircle
 10
234.8927910214
 20
122.1807943389
 30
0.0
 40
6.984999999993139
100
AcDbArc
 50
98.3403995269
 51
180.0000677776
  0
ARC
  5
21C
330
1F
100
AcDbEntity
  8
0
  6
Continuous
 62
     7
370
    15
100
AcDbCircle
 10
234.8927910214
 20
122.180786076
 30
0.0
 40
6.984999999999957
100
AcDbArc
 50
180.0
 51
278.3397393552
  0
ARC
  5
21D
330
1F
100
AcDbEntity
  8
0
  6
Continuous
 62
     7
370
    15
100
AcDbCircle
 10
410.2719922
 20
164.7170506455
 30
0.0
 40
6.984999999999925
100
AcDbArc
 50
271.4617100665
 51
0.0
  0
ARC
  5
21E
330
1F
100
AcDbEntity
  8
0
  6
Continuous
 62
     7
370
    15
100
AcDbCircle
 10
410.2719922
 20
164.7174411869
 30
0.0
 40
6.984999999999883
100
AcDbArc
 50
0.0
 51
91.4460819948
  0
ARC
  5
21F
330
1F
100
AcDbEntity
  8
0
  6
Continuous
 62
     7
370
    15
100
AcDbCircle
 10
556.4064642316
 20
214.8806544575
 30
0.0
 40
13.96999999999994
100
AcDbArc
 50
328.1372875637
 51
90.0
  0
ARC
  5
220
330
1F
100
AcDbEntity
  8
0
  6
Continuous
 62
     7
370
    15
100
AcDbCircle
 10
484.0136399448
 20
221.8656544575
 30
0.0
 40
6.984999999999985
100
AcDbArc
 50
90.0
 51
270.0
  0
ARC
  5
221
330
1F
100
AcDbEntity
  8
0
  6
Continuous
 62
     7
370
    15
100
AcDbCircle
 10
436.9419922
 20
164.9039179366
 30
0.0
 40
6.985000000000127
100
AcDbArc
 50
89.9327422536
 51
180.0
  0
ARC
  5
222
330
1F
100
AcDbEntity
  8
0
  6
Continuous
 62
     7
370
    15
100
AcDbCircle
 10
436.9419922
 20
164.9035091654
 30
0.0
 40
6.985000000000014
100
AcDbArc
 50
180.0
 51
269.9306184242
  0
ARC
  5
223
330
1F
100
AcDbEntity
  8
0
  6
Continuous
 62
     7
370
    15
100
AcDbCircle
 10
457.3436399448
 20
221.8656544575
 30
0.0
 40
6.985000000000127
100
AcDbArc
 50
270.0
 51
90.0
  0
ARC
  5
224
330
1F
100
AcDbEntity
  8
0
  6
Continuous
 62
     7
370
    15
100
AcDbCircle
 10
284.8917395795
 20
221.8656544575
 30
0.0
 40
6.984999999999957
100
AcDbArc
 50
90.0
 51
270.0
  0
ARC
  5
225
330
1F
100
AcDbEntity
  8
0
  6
Continuous
 62
     7
370
    15
100
AcDbCircle
 10
211.2217475129
 20
214.8806544575
 30
0.0
 40
13.97
100
AcDbArc
 50
90.0
 51
180.0
  0
ARC
  5
226
330
1F
100
AcDbEntity
  8
0
  6
Continuous
 62
     7
370
    15
100
AcDbCircle
 10
179.4717475129
 20
138.1726544575
 30
0.0
 40
13.97000000000003
100
AcDbArc
 50
90.0
 51
180.0
  0
ARC
  5
227
330
1F
100
AcDbEntity
  8
0
  6
Continuous
 62
     7
370
    15
100
AcDbCircle
 10
179.4717475129
 20
127.2506544575
 30
0.0
 40
13.97000000000014
100
AcDbArc
 50
180.0
 51
270.0
  0
ARC
  5
228
330
1F
100
AcDbEntity
  8
0
  6
Continuous
 62
     7
370
    15
100
AcDbCircle
 10
208.2227910214
 20
120.2578504763
 30
0.0
 40
6.984999999999931
100
AcDbArc
 50
269.610410775
 51
0.0
  0
ARC
  5
229
330
1F
100
AcDbEntity
  8
0
  6
Continuous
 62
     7
370
    15
100
AcDbCircle
 10
208.2227910214
 20
120.2579414136
 30
0.0
 40
6.984999999999992
100
AcDbArc
 50
0.0
 51
89.6142134192
  0
ARC
  5
22A
330
1F
100
AcDbEntity
  8
0
  6
Continuous
 62
     7
370
    15
100
AcDbCircle
 10
204.2367475129
 20
145.1576544575
 30
0.0
 40
6.984999999999985
100
AcDbArc
 50
270.0
 51
0.0
  0
ARC
  5
22B
330
1F
100
AcDbEntity
  8
0
  6
Continuous
 62
     7
370
    15
100
AcDbCircle
 10
258.2217395795
 20
221.8656544575
 30
0.0
 40
6.985000000000184
100
AcDbArc
 50
270.0
 51
90.0
  0
ARC
  5
22C
330
1F
100
AcDbEntity
  8
0
  6
Continuous
 62
     7
370
    15
100
AcDbCircle
 10
546.5017475129
 20
1152.0898147792
 30
0.0
 40
6.985000000000014
100
AcDbArc
 50
180.0
 51
360.0
  0
ARC
  5
22D
330
1F
100
AcDbEntity
  8
0
  6
Continuous
 62
     7
370
    15
100
AcDbCircle
 10
203.6017475129
 20
1152.0898147792
 30
0.0
 40
6.984999999999957
100
AcDbArc
 50
180.0
 51
0.0
  0
ARC
  5
22E
330
1F
100
AcDbEntity
  8
0
  6
Continuous
 62
     7
370
    15
100
AcDbCircle
 10
587.1417475129
 20
1238.6206544575
 30
0.0
 40
13.9699999999998
100
AcDbArc
 50
0.0
 51
90.0
  0
ARC
  5
22F
330
1F
100
AcDbEntity
  8
0
  6
Continuous
 62
     7
370
    15
100
AcDbCircle
 10
373.1467475129
 20
1245.6056544575
 30
0.0
 40
6.985000000000127
100
AcDbArc
 50
90.0
 51
270.0
  0
ARC
  5
230
330
1F
100
AcDbEntity
  8
0
  6
Continuous
 62
     7
370
    15
100
AcDbCircle
 10
594.1267475129
 20
1156.7056544575
 30
0.0
 40
6.985000000000241
100
AcDbArc
 50
180.0
 51
0.0
  0
ARC
  5
231
330
1F
100
AcDbEntity
  8
0
  6
Continuous
 62
     7
370
    15
100
AcDbCircle
 10
203.6017475129
 20
1215.5898147792
 30
0.0
 40
6.985000000000014
100
AcDbArc
 50
0.0
 51
180.0
  0
ARC
  5
232
330
1F
100
AcDbEntity
  8
0
  6
Continuous
 62
     7
370
    15
100
AcDbCircle
 10
349.6517475129
 20
1152.0898147792
 30
0.0
 40
6.984999999999957
100
AcDbArc
 50
180.0
 51
0.0
  0
ARC
  5
233
330
1F
100
AcDbEntity
  8
0
  6
Continuous
 62
     7
370
    15
100
AcDbCircle
 10
349.6517475129
 20
1215.5898147792
 30
0.0
 40
6.984999999999957
100
AcDbArc
 50
0.0
 51
180.0
  0
ARC
  5
234
330
1F
100
AcDbEntity
  8
0
  6
Continuous
 62
     7
370
    15
100
AcDbCircle
 10
375.0517475129
 20
1215.5898147792
 30
0.0
 40
6.985000000000014
100
AcDbArc
 50
0.0
 51
180.0
  0
ARC
  5
235
330
1F
100
AcDbEntity
  8
0
  6
Continuous
 62
     7
370
    15
100
AcDbCircle
 10
375.0517475129
 20
1152.0898147792
 30
0.0
 40
6.985000000000014
100
AcDbArc
 50
180.0
 51
0.0
  0
ARC
  5
236
330
1F
100
AcDbEntity
  8
0
  6
Continuous
 62
     7
370
    15
100
AcDbCircle
 10
521.1017475129
 20
1152.0898147792
 30
0.0
 40
6.985000000000127
100
AcDbArc
 50
180.0
 51
0.0
  0
ARC
  5
237
330
1F
100
AcDbEntity
  8
0
  6
Continuous
 62
     7
370
    15
100
AcDbCircle
 10
521.1017475129
 20
1215.5898147792
 30
0.0
 40
6.985000000000127
100
AcDbArc
 50
0.0
 51
180.0
  0
ARC
  5
238
330
1F
100
AcDbEntity
  8
0
  6
Continuous
 62
     7
370
    15
100
AcDbCircle
 10
178.2017475129
 20
1215.5898147792
 30
0.0
 40
6.984999999999957
100
AcDbArc
 50
0.0
 51
180.0
  0
ARC
  5
239
330
1F
100
AcDbEntity
  8
0
  6
Continuous
 62
     7
370
    15
100
AcDbCircle
 10
178.2017475129
 20
1152.0898147792
 30
0.0
 40
6.984999999999985
100
AcDbArc
 50
180.0
 51
0.0
  0
ARC
  5
23A
330
1F
100
AcDbEntity
  8
0
  6
Continuous
 62
     7
370
    15
100
AcDbCircle
 10
546.5017475129
 20
1215.5898147792
 30
0.0
 40
6.985000000000127
100
AcDbArc
 50
0.0
 51
180.0
  0
ARC
  5
23B
330
1F
100
AcDbEntity
  8
0
  6
Continuous
 62
     7
370
    15
100
AcDbCircle
 10
346.4767475129
 20
1245.6056544575
 30
0.0
 40
6.985000000000127
100
AcDbArc
 50
270.0
 51
90.0
  0
ARC
  5
23C
330
1F
100
AcDbEntity
  8
0
  6
Continuous
 62
     7
370
    15
100
AcDbCircle
 10
137.5617475129
 20
1238.6206544575
 30
0.0
 40
13.97000000000025
100
AcDbArc
 50
90.0
 51
180.0
  0
ARC
  5
23D
330
1F
100
AcDbEntity
  8
0
  6
Continuous
 62
     7
370
    15
100
AcDbCircle
 10
130.5767475129
 20
1156.7056544575
 30
0.0
 40
6.985000000000355
100
AcDbArc
 50
180.0
 51
0.0
  0
ARC
  5
23E
330
1F
100
AcDbEntity
  8
0
  6
Continuous
 62
     7
370
    15
100
AcDbCircle
 10
373.1467475129
 20
1036.0556544575
 30
0.0
 40
6.985000000000355
100
AcDbArc
 50
90.0
 51
270.0
  0
ARC
  5
23F
330
1F
100
AcDbEntity
  8
0
  6
Continuous
 62
     7
370
    15
100
AcDbCircle
 10
587.1417475128
 20
1043.0406544575
 30
0.0
 40
13.97000000000025
100
AcDbArc
 50
270.0
 51
0.0
  0
ARC
  5
240
330
1F
100
AcDbEntity
  8
0
  6
Continuous
 62
     7
370
    15
100
AcDbCircle
 10
594.1267475129
 20
1130.0356544575
 30
0.0
 40
6.985000000000241
100
AcDbArc
 50
360.0
 51
180.0
  0
ARC
  5
241
330
1F
100
AcDbEntity
  8
0
  6
Continuous
 62
     7
370
    15
100
AcDbCircle
 10
130.5767475129
 20
1130.0356544575
 30
0.0
 40
6.985000000000213
100
AcDbArc
 50
0.0
 51
180.0
  0
ARC
  5
242
330
1F
100
AcDbEntity
  8
0
  6
Continuous
 62
     7
370
    15
100
AcDbCircle
 10
137.5617475129
 20
1043.0406544575
 30
0.0
 40
13.97000000000004
100
AcDbArc
 50
180.0
 51
270.0
  0
ARC
  5
243
330
1F
100
AcDbEntity
  8
0
  6
Continuous
 62
     7
370
    15
100
AcDbCircle
 10
346.4767475129
 20
1036.0556544575
 30
0.0
 40
6.985000000000355
100
AcDbArc
 50
270.0
 51
90.0
  0
MTEXT
  5
245
330
1F
100
AcDbEntity
  8
0
  6
Continuous
 62
     7
100
AcDbMText
 10
110.8917475129
 20
65.1510880658
 30
0.0
 40
4.83362
 41
0.0
 71
     1
 72
     1
  1
SOLIDWORKS Educational Edition.
  7
SLDTEXTSTYLE0
 73
     1
 44
1.0
  0
MTEXT
  5
246
330
1F
100
AcDbEntity
  8
0
  6
Continuous
 62
     7
100
AcDbMText
 10
110.8917475129
 20
57.9006580658
 30
0.0
 40
4.83362
 41
0.0
 71
     1
 72
     1
  1
For Instructional Use Only.
  7
SLDTEXTSTYLE0
 73
     1
 44
1.0
  0
ENDSEC
  0
SECTION
  2
OBJECTS
  0
DICTIONARY
  5
C
330
0
100
AcDbDictionary
281
     1
  3
ACAD_GROUP
350
D
  3
ACAD_LAYOUT
350
1A
  3
ACAD_MLINESTYLE
350
17
  3
ACAD_PLOTSETTINGS
350
19
  3
ACAD_PLOTSTYLENAME
350
E
  3
ACAD_SCALELIST
350
47
  0
DICTIONARY
  5
D
102
{ACAD_REACTORS
330
C
102
}
330
C
100
AcDbDictionary
281
     1
  0
DICTIONARY
  5
1A
102
{ACAD_REACTORS
330
C
102
}
330
C
100
AcDbDictionary
281
     1
  3
Layout1
350
1E
  3
Layout2
350
26
  3
Model
350
22
  0
DICTIONARY
  5
17
102
{ACAD_REACTORS
330
C
102
}
330
C
100
AcDbDictionary
281
     1
  3
Standard
350
18
  0
DICTIONARY
  5
19
102
{ACAD_REACTORS
330
C
102
}
330
C
100
AcDbDictionary
281
     1
  0
ACDBDICTIONARYWDFLT
  5
E
102
{ACAD_REACTORS
330
C
102
}
330
C
100
AcDbDictionary
281
     1
  3
Normal
350
F
100
AcDbDictionaryWithDefault
340
F
  0
DICTIONARY
  5
47
102
{ACAD_REACTORS
330
C
102
}
330
C
100
AcDbDictionary
281
     1
  3
A0
350
48
  3
A1
350
49
  3
A2
350
4A
  3
A3
350
4B
  3
A4
350
4C
  3
A5
350
4D
  3
A6
350
4E
  3
A7
350
4F
  3
A8
350
50
  3
A9
350
51
  3
B0
350
52
  3
B1
350
53
  3
B2
350
54
  3
B3
350
55
  3
B4
350
56
  3
B5
350
57
  3
B6
350
58
  3
B7
350
59
  3
B8
350
5A
  3
B9
350
5B
  3
C0
350
5C
  3
C1
350
5D
  3
C2
350
5E
  3
C3
350
5F
  3
C4
350
60
  3
C5
350
61
  3
C6
350
62
  3
C7
350
63
  3
C8
350
64
  3
C9
350
65
  3
D0
350
66
  3
D1
350
67
  3
D2
350
68
  0
LAYOUT
  5
1E
102
{ACAD_REACTORS
330
1A
102
}
330
1A
100
AcDbPlotSettings
  1

  2
none_device
  4

  6

 40
0.0
 41
0.0
 42
0.0
 43
0.0
 44
0.0
 45
0.0
 46
0.0
 47
0.0
 48
0.0
 49
0.0
140
0.0
141
0.0
142
1.0
143
1.0
 70
   688
 72
     1
 73
     0
 74
     5
  7

 75
    16
147
1.0
148
0.0
149
0.0
100
AcDbLayout
  1
Layout1
 70
     1
 71
     1
 10
0.0
 20
0.0
 11
420.0
 21
297.0
 12
0.0
 22
0.0
 32
0.0
 14
1.0000000000E+20
 24
1.0000000000E+20
 34
1.0000000000E+20
 15
-1.0000000000E+20
 25
-1.0000000000E+20
 35
-1.0000000000E+20
146
0.0
 13
0.0
 23
0.0
 33
0.0
 16
1.0
 26
0.0
 36
0.0
 17
0.0
 27
1.0
 37
0.0
 76
     0
330
1B
  0
LAYOUT
  5
26
102
{ACAD_REACTORS
330
1A
102
}
330
1A
100
AcDbPlotSettings
  1

  2
none_device
  4

  6

 40
0.0
 41
0.0
 42
0.0
 43
0.0
 44
0.0
 45
0.0
 46
0.0
 47
0.0
 48
0.0
 49
0.0
140
0.0
141
0.0
142
1.0
143
1.0
 70
   688
 72
     1
 73
     0
 74
     5
  7

 75
    16
147
1.0
148
0.0
149
0.0
100
AcDbLayout
  1
Layout2
 70
     1
 71
     2
 10
0.0
 20
0.0
 11
0.0
 21
0.0
 12
0.0
 22
0.0
 32
0.0
 14
0.0
 24
0.0
 34
0.0
 15
0.0
 25
0.0
 35
0.0
146
0.0
 13
0.0
 23
0.0
 33
0.0
 16
1.0
 26
0.0
 36
0.0
 17
0.0
 27
1.0
 37
0.0
 76
     0
330
23
  0
LAYOUT
  5
22
102
{ACAD_REACTORS
330
1A
102
}
330
1A
100
AcDbPlotSettings
  1

  2
none_device
  4
ANSI_A_(11.00_x_8.50_Inches)
  6

 40
6.35
 41
19.05
 42
6.35000508
 43
19.05000254
 44
279.4
 45
215.9
 46
69.3799129742
 47
-29.5710441296
 48
0.0
 49
0.0
140
0.0
141
0.0
142
0.0069020669
143
1.0
 70
  1696
 72
     0
 73
     0
 74
     0
  7

 75
     0
147
0.0179189148
148
-1300.4909072572
149
0.0
100
AcDbLayout
  1
Model
 70
     1
 71
     0
 10
0.0
 20
0.0
 11
420.0
 21
297.0
 12
0.0
 22
0.0
 32
0.0
 14
110.8917475129
 24
66.1706544575
 34
0.0
 15
618.8917475129
 25
1285.3706544575
 35
0.0
146
0.0
 13
0.0
 23
0.0
 33
0.0
 16
1.0
 26
0.0
 36
0.0
 17
0.0
 27
1.0
 37
0.0
 76
     0
330
1F
331
29
  0
MLINESTYLE
  5
18
102
{ACAD_REACTORS
330
17
102
}
330
17
100
AcDbMlineStyle
  2
Standard
 70
     0
  3

 62
   256
 51
90.0
 52
90.0
 71
     2
 49
0.5
 62
   256
  6
BYLAYER
 49
-0.5
 62
   256
  6
BYLAYER
  0
ACDBPLACEHOLDER
  5
F
102
{ACAD_REACTORS
330
E
102
}
330
E
  0
SCALE
  5
48
102
{ACAD_REACTORS
330
47
102
}
330
47
100
AcDbScale
 70
     0
300
1:1
140
1.0
141
1.0
290
     1
  0
SCALE
  5
49
102
{ACAD_REACTORS
330
47
102
}
330
47
100
AcDbScale
 70
     0
300
1:2
140
1.0
141
2.0
290
     0
  0
SCALE
  5
4A
102
{ACAD_REACTORS
330
47
102
}
330
47
100
AcDbScale
 70
     0
300
1:4
140
1.0
141
4.0
290
     0
  0
SCALE
  5
4B
102
{ACAD_REACTORS
330
47
102
}
330
47
100
AcDbScale
 70
     0
300
1:5
140
1.0
141
5.0
290
     0
  0
SCALE
  5
4C
102
{ACAD_REACTORS
330
47
102
}
330
47
100
AcDbScale
 70
     0
300
1:8
140
1.0
141
8.0
290
     0
  0
SCALE
  5
4D
102
{ACAD_REACTORS
330
47
102
}
330
47
100
AcDbScale
 70
     0
300
1:10
140
1.0
141
10.0
290
     0
  0
SCALE
  5
4E
102
{ACAD_REACTORS
330
47
102
}
330
47
100
AcDbScale
 70
     0
300
1:16
140
1.0
141
16.0
290
     0
  0
SCALE
  5
4F
102
{ACAD_REACTORS
330
47
102
}
330
47
100
AcDbScale
 70
     0
300
1:20
140
1.0
141
20.0
290
     0
  0
SCALE
  5
50
102
{ACAD_REACTORS
330
47
102
}
330
47
100
AcDbScale
 70
     0
300
1:30
140
1.0
141
30.0
290
     0
  0
SCALE
  5
51
102
{ACAD_REACTORS
330
47
102
}
330
47
100
AcDbScale
 70
     0
300
1:40
140
1.0
141
40.0
290
     0
  0
SCALE
  5
52
102
{ACAD_REACTORS
330
47
102
}
330
47
100
AcDbScale
 70
     0
300
1:50
140
1.0
141
50.0
290
     0
  0
SCALE
  5
53
102
{ACAD_REACTORS
330
47
102
}
330
47
100
AcDbScale
 70
     0
300
1:100
140
1.0
141
100.0
290
     0
  0
SCALE
  5
54
102
{ACAD_REACTORS
330
47
102
}
330
47
100
AcDbScale
 70
     0
300
2:1
140
2.0
141
1.0
290
     0
  0
SCALE
  5
55
102
{ACAD_REACTORS
330
47
102
}
330
47
100
AcDbScale
 70
     0
300
4:1
140
4.0
141
1.0
290
     0
  0
SCALE
  5
56
102
{ACAD_REACTORS
330
47
102
}
330
47
100
AcDbScale
 70
     0
300
8:1
140
8.0
141
1.0
290
     0
  0
SCALE
  5
57
102
{ACAD_REACTORS
330
47
102
}
330
47
100
AcDbScale
 70
     0
300
10:1
140
10.0
141
1.0
290
     0
  0
SCALE
  5
58
102
{ACAD_REACTORS
330
47
102
}
330
47
100
AcDbScale
 70
     0
300
100:1
140
100.0
141
1.0
290
     0
  0
SCALE
  5
59
102
{ACAD_REACTORS
330
47
102
}
330
47
100
AcDbScale
 70
     0
300
1/128" = 1'-0"
140
0.0078125
141
12.0
290
     0
  0
SCALE
  5
5A
102
{ACAD_REACTORS
330
47
102
}
330
47
100
AcDbScale
 70
     0
300
1/64" = 1'-0"
140
0.015625
141
12.0
290
     0
  0
SCALE
  5
5B
102
{ACAD_REACTORS
330
47
102
}
330
47
100
AcDbScale
 70
     0
300
1/32" = 1'-0"
140
0.03125
141
12.0
290
     0
  0
SCALE
  5
5C
102
{ACAD_REACTORS
330
47
102
}
330
47
100
AcDbScale
 70
     0
300
1/16" = 1'-0"
140
0.0625
141
12.0
290
     0
  0
SCALE
  5
5D
102
{ACAD_REACTORS
330
47
102
}
330
47
100
AcDbScale
 70
     0
300
3/32" = 1'-0"
140
0.09375
141
12.0
290
     0
  0
SCALE
  5
5E
102
{ACAD_REACTORS
330
47
102
}
330
47
100
AcDbScale
 70
     0
300
1/8" = 1'-0"
140
0.125
141
12.0
290
     0
  0
SCALE
  5
5F
102
{ACAD_REACTORS
330
47
102
}
330
47
100
AcDbScale
 70
     0
300
3/16" = 1'-0"
140
0.1875
141
12.0
290
     0
  0
SCALE
  5
60
102
{ACAD_REACTORS
330
47
102
}
330
47
100
AcDbScale
 70
     0
300
1/4" = 1'-0"
140
0.25
141
12.0
290
     0
  0
SCALE
  5
61
102
{ACAD_REACTORS
330
47
102
}
330
47
100
AcDbScale
 70
     0
300
3/8" = 1'-0"
140
0.375
141
12.0
290
     0
  0
SCALE
  5
62
102
{ACAD_REACTORS
330
47
102
}
330
47
100
AcDbScale
 70
     0
300
1/2" = 1'-0"
140
0.5
141
12.0
290
     0
  0
SCALE
  5
63
102
{ACAD_REACTORS
330
47
102
}
330
47
100
AcDbScale
 70
     0
300
3/4" = 1'-0"
140
0.75
141
12.0
290
     0
  0
SCALE
  5
64
102
{ACAD_REACTORS
330
47
102
}
330
47
100
AcDbScale
 70
     0
300
1" = 1'-0"
140
1.0
141
12.0
290
     0
  0
SCALE
  5
65
102
{ACAD_REACTORS
330
47
102
}
330
47
100
AcDbScale
 70
     0
300
1-1/2" = 1'-0"
140
1.5
141
12.0
290
     0
  0
SCALE
  5
66
102
{ACAD_REACTORS
330
47
102
}
330
47
100
AcDbScale
 70
     0
300
3" = 1'-0"
140
3.0
141
12.0
290
     0
  0
SCALE
  5
67
102
{ACAD_REACTORS
330
47
102
}
330
47
100
AcDbScale
 70
     0
300
6" = 1'-0"
140
6.0
141
12.0
290
     0
  0
SCALE
  5
68
102
{ACAD_REACTORS
330
47
102
}
330
47
100
AcDbScale
 70
     0
300
1'-0" = 1'-0"
140
12.0
141
12.0
290
     0
  0
ENDSEC
  0
EOF
